  0
SECTION
  2
HEADER
  9
$ACADVER
  1
AC1015
  9
$ACADMAINTVER
 70
     6
  9
$DWGCODEPAGE
  3
ANSI_1254
  9
$INSBASE
 10
0.0
 20
0.0
 30
0.0
  9
$EXTMIN
 10
0.0
 20
0.0
 30
0.0
  9
$EXTMAX
 10
279.4
 20
215.9
 30
0.0
  9
$LIMMIN
 10
0.0
 20
0.0
  9
$LIMMAX
 10
279.4
 20
215.9
  9
$ORTHOMODE
 70
     0
  9
$REGENMODE
 70
     1
  9
$FILLMODE
 70
     1
  9
$QTEXTMODE
 70
     0
  9
$MIRRTEXT
 70
     1
  9
$LTSCALE
 40
1.0
  9
$ATTMODE
 70
     1
  9
$TEXTSIZE
 40
3.5
  9
$TRACEWID
 40
1.0
  9
$TEXTSTYLE
  7
Standard
  9
$CLAYER
  8
0
  9
$CELTYPE
  6
ByLayer
  9
$CECOLOR
 62
   256
  9
$CELTSCALE
 40
1.0
  9
$DISPSILH
 70
     0
  9
$DIMSCALE
 40
1.0
  9
$DIMASZ
 40
3.5
  9
$DIMEXO
 40
1.0
  9
$DIMDLI
 40
3.75
  9
$DIMRND
 40
0.0
  9
$DIMDLE
 40
0.0
  9
$DIMEXE
 40
1.0
  9
$DIMTP
 40
0.0
  9
$DIMTM
 40
0.0
  9
$DIMTXT
 40
3.5
  9
$DIMCEN
 40
2.5
  9
$DIMTSZ
 40
0.0
  9
$DIMTOL
 70
     0
  9
$DIMLIM
 70
     0
  9
$DIMTIH
 70
     1
  9
$DIMTOH
 70
     1
  9
$DIMSE1
 70
     0
  9
$DIMSE2
 70
     0
  9
$DIMTAD
 70
     1
  9
$DIMZIN
 70
     0
  9
$DIMBLK
  1

  9
$DIMASO
 70
     1
  9
$DIMSHO
 70
     1
  9
$DIMPOST
  1

  9
$DIMAPOST
  1

  9
$DIMALT
 70
     0
  9
$DIMALTD
 70
     3
  9
$DIMALTF
 40
0.0393700787
  9
$DIMLFAC
 40
1.0
  9
$DIMTOFL
 70
     1
  9
$DIMTVP
 40
0.0
  9
$DIMTIX
 70
     0
  9
$DIMSOXD
 70
     0
  9
$DIMSAH
 70
     0
  9
$DIMBLK1
  1

  9
$DIMBLK2
  1

  9
$DIMSTYLE
  2
ISO-25
  9
$DIMCLRD
 70
     0
  9
$DIMCLRE
 70
     0
  9
$DIMCLRT
 70
     0
  9
$DIMTFAC
 40
1.0
  9
$DIMGAP
 40
1.524
  9
$DIMJUST
 70
     0
  9
$DIMSD1
 70
     0
  9
$DIMSD2
 70
     0
  9
$DIMTOLJ
 70
     0
  9
$DIMTZIN
 70
     0
  9
$DIMALTZ
 70
     0
  9
$DIMALTTZ
 70
     0
  9
$DIMUPT
 70
     0
  9
$DIMDEC
 70
     2
  9
$DIMTDEC
 70
     2
  9
$DIMALTU
 70
     2
  9
$DIMALTTD
 70
     3
  9
$DIMTXSTY
  7
Standard
  9
$DIMAUNIT
 70
     0
  9
$DIMADEC
 70
     2
  9
$DIMALTRND
 40
0.0
  9
$DIMAZIN
 70
     0
  9
$DIMDSEP
 70
    44
  9
$DIMATFIT
 70
     3
  9
$DIMFRAC
 70
     0
  9
$DIMLDRBLK
  1

  9
$DIMLUNIT
 70
     2
  9
$DIMLWD
 70
    -2
  9
$DIMLWE
 70
    -2
  9
$DIMTMOVE
 70
     0
  9
$LUNITS
 70
     2
  9
$LUPREC
 70
     2
  9
$SKETCHINC
 40
1.0
  9
$FILLETRAD
 40
10.0
  9
$AUNITS
 70
     0
  9
$AUPREC
 70
     2
  9
$MENU
  1
.
  9
$ELEVATION
 40
0.0
  9
$PELEVATION
 40
0.0
  9
$THICKNESS
 40
0.0
  9
$LIMCHECK
 70
     0
  9
$CHAMFERA
 40
0.0
  9
$CHAMFERB
 40
0.0
  9
$CHAMFERC
 40
0.0
  9
$CHAMFERD
 40
0.0
  9
$SKPOLY
 70
     0
  9
$TDCREATE
 40
2458985.721451111
  9
$TDUCREATE
 40
2458985.596451111
  9
$TDUPDATE
 40
2458985.721451481
  9
$TDUUPDATE
 40
2458985.596451481
  9
$TDINDWG
 40
0.0000000116
  9
$TDUSRTIMER
 40
0.0000000116
  9
$USRTIMER
 70
     1
  9
$ANGBASE
 50
0.0
  9
$ANGDIR
 70
     0
  9
$PDMODE
 70
     0
  9
$PDSIZE
 40
-1.0
  9
$PLINEWID
 40
0.0
  9
$SPLFRAME
 70
     0
  9
$SPLINETYPE
 70
     6
  9
$SPLINESEGS
 70
     8
  9
$HANDSEED
  5
E1
  9
$SURFTAB1
 70
     6
  9
$SURFTAB2
 70
     6
  9
$SURFTYPE
 70
     6
  9
$SURFU
 70
     6
  9
$SURFV
 70
     6
  9
$UCSBASE
  2

  9
$UCSNAME
  2

  9
$UCSORG
 10
0.0
 20
0.0
 30
0.0
  9
$UCSXDIR
 10
1.0
 20
0.0
 30
0.0
  9
$UCSYDIR
 10
0.0
 20
1.0
 30
0.0
  9
$UCSORTHOREF
  2

  9
$UCSORTHOVIEW
 70
     0
  9
$UCSORGTOP
 10
0.0
 20
0.0
 30
0.0
  9
$UCSORGBOTTOM
 10
0.0
 20
0.0
 30
0.0
  9
$UCSORGLEFT
 10
0.0
 20
0.0
 30
0.0
  9
$UCSORGRIGHT
 10
0.0
 20
0.0
 30
0.0
  9
$UCSORGFRONT
 10
0.0
 20
0.0
 30
0.0
  9
$UCSORGBACK
 10
0.0
 20
0.0
 30
0.0
  9
$PUCSBASE
  2

  9
$PUCSNAME
  2

  9
$PUCSORG
 10
0.0
 20
0.0
 30
0.0
  9
$PUCSXDIR
 10
1.0
 20
0.0
 30
0.0
  9
$PUCSYDIR
 10
0.0
 20
1.0
 30
0.0
  9
$PUCSORTHOREF
  2

  9
$PUCSORTHOVIEW
 70
     0
  9
$PUCSORGTOP
 10
0.0
 20
0.0
 30
0.0
  9
$PUCSORGBOTTOM
 10
0.0
 20
0.0
 30
0.0
  9
$PUCSORGLEFT
 10
0.0
 20
0.0
 30
0.0
  9
$PUCSORGRIGHT
 10
0.0
 20
0.0
 30
0.0
  9
$PUCSORGFRONT
 10
0.0
 20
0.0
 30
0.0
  9
$PUCSORGBACK
 10
0.0
 20
0.0
 30
0.0
  9
$USERI1
 70
     0
  9
$USERI2
 70
     0
  9
$USERI3
 70
     0
  9
$USERI4
 70
     0
  9
$USERI5
 70
     0
  9
$USERR1
 40
0.0
  9
$USERR2
 40
0.0
  9
$USERR3
 40
0.0
  9
$USERR4
 40
0.0
  9
$USERR5
 40
0.0
  9
$WORLDVIEW
 70
     1
  9
$SHADEDGE
 70
     3
  9
$SHADEDIF
 70
    70
  9
$TILEMODE
 70
     1
  9
$MAXACTVP
 70
    64
  9
$PINSBASE
 10
0.0
 20
0.0
 30
0.0
  9
$PLIMCHECK
 70
     0
  9
$PEXTMIN
 10
1.0000000000E+20
 20
1.0000000000E+20
 30
1.0000000000E+20
  9
$PEXTMAX
 10
-1.0000000000E+20
 20
-1.0000000000E+20
 30
-1.0000000000E+20
  9
$PLIMMIN
 10
0.0
 20
0.0
  9
$PLIMMAX
 10
420.0
 20
297.0
  9
$UNITMODE
 70
     0
  9
$VISRETAIN
 70
     1
  9
$PLINEGEN
 70
     0
  9
$PSLTSCALE
 70
     1
  9
$TREEDEPTH
 70
  3020
  9
$CMLSTYLE
  2
Standard
  9
$CMLJUST
 70
     0
  9
$CMLSCALE
 40
20.0
  9
$PROXYGRAPHICS
 70
     1
  9
$MEASUREMENT
 70
     1
  9
$CELWEIGHT
370
    -1
  9
$ENDCAPS
280
     0
  9
$JOINSTYLE
280
     0
  9
$LWDISPLAY
290
     1
  9
$INSUNITS
 70
     4
  9
$HYPERLINKBASE
  1

  9
$STYLESHEET
  1

  9
$XEDIT
290
     1
  9
$CEPSNTYPE
380
     0
  9
$PSTYLEMODE
290
     1
  9
$FINGERPRINTGUID
  2
{4ddbc98d-12f2-4773-aa35-1f54e868db13}
  9
$VERSIONGUID
  2
{FAEB1C32-E019-11D5-929B-00C0DF256EC4}
  9
$EXTNAMES
290
     1
  9
$PSVPSCALE
 40
0.0
  9
$OLESTARTUP
290
     0
  0
ENDSEC
  0
SECTION
  2
CLASSES
  0
CLASS
  1
ACDBDICTIONARYWDFLT
  2
AcDbDictionaryWithDefault
  3
ObjectDBX Classes
 90
        0
280
     0
281
     0
  0
CLASS
  1
VISUALSTYLE
  2
AcDbVisualStyle
  3
ObjectDBX Classes
 90
     4095
280
     0
281
     0
  0
CLASS
  1
MATERIAL
  2
AcDbMaterial
  3
ObjectDBX Classes
 90
     1153
280
     0
281
     0
  0
CLASS
  1
SCALE
  2
AcDbScale
  3
ObjectDBX Classes
 90
     1153
280
     0
281
     0
  0
CLASS
  1
TABLESTYLE
  2
AcDbTableStyle
  3
ObjectDBX Classes
 90
     4095
280
     0
281
     0
  0
CLASS
  1
MLEADERSTYLE
  2
AcDbMLeaderStyle
  3
ACDB_MLEADERSTYLE_CLASS
 90
     4095
280
     0
281
     0
  0
CLASS
  1
SUN
  2
AcDbSun
  3
SCENEOE
 90
     1153
280
     0
281
     0
  0
CLASS
  1
ACDBPLACEHOLDER
  2
AcDbPlaceHolder
  3
ObjectDBX Classes
 90
        0
280
     0
281
     0
  0
CLASS
  1
LAYOUT
  2
AcDbLayout
  3
ObjectDBX Classes
 90
        0
280
     0
281
     0
  0
ENDSEC
  0
SECTION
  2
TABLES
  0
TABLE
  2
VPORT
  5
8
330
0
100
AcDbSymbolTable
 70
     1
  0
VPORT
  5
29
330
8
100
AcDbSymbolTableRecord
100
AcDbViewportTableRecord
  2
*Active
 70
     0
 10
0.0
 20
0.0
 11
1.0
 21
1.0
 12
139.7
 22
107.95
 13
0.0
 23
0.0
 14
10.0
 24
10.0
 15
10.0
 25
10.0
 16
0.0
 26
0.0
 36
1.0
 17
0.0
 27
0.0
 37
0.0
 40
215.9
 41
1.2941176471
 42
50.0
 43
0.0
 44
0.0
 50
0.0
 51
0.0
 71
     0
 72
  2000
 73
     1
 74
     3
 75
     0
 76
     0
 77
     0
 78
     0
281
     0
 65
     1
110
0.0
120
0.0
130
0.0
111
1.0
121
0.0
131
0.0
112
0.0
122
1.0
132
0.0
 79
     0
146
0.0
  0
ENDTAB
  0
TABLE
  2
LTYPE
  5
5
330
0
100
AcDbSymbolTable
 70
     6
  0
LTYPE
  5
14
330
5
100
AcDbSymbolTableRecord
100
AcDbLinetypeTableRecord
  2
ByBlock
 70
     0
  3

 72
    65
 73
     0
 40
0.0
  0
LTYPE
  5
15
330
5
100
AcDbSymbolTableRecord
100
AcDbLinetypeTableRecord
  2
ByLayer
 70
     0
  3

 72
    65
 73
     0
 40
0.0
  0
LTYPE
  5
16
330
5
100
AcDbSymbolTableRecord
100
AcDbLinetypeTableRecord
  2
Continuous
 70
     0
  3
Solid line
 72
    65
 73
     0
 40
0.0
  0
LTYPE
  5
6E
330
5
100
AcDbSymbolTableRecord
100
AcDbLinetypeTableRecord
  2
HIDDEN
 70
     0
  3
Hidden __ __ __ __ __ __ __ __ __ __ __ __ __ __
 72
    65
 73
     2
 40
1.905
 49
1.27
 74
     0
 49
-0.635
 74
     0
  0
LTYPE
  5
6F
330
5
100
AcDbSymbolTableRecord
100
AcDbLinetypeTableRecord
  2
PHANTOM
 70
     0
  3
Phantom ______  __  __  ______  __  __  ______
 72
    65
 73
     6
 40
12.7
 49
6.35
 74
     0
 49
-1.27
 74
     0
 49
1.27
 74
     0
 49
-1.27
 74
     0
 49
1.27
 74
     0
 49
-1.27
 74
     0
  0
LTYPE
  5
70
330
5
100
AcDbSymbolTableRecord
100
AcDbLinetypeTableRecord
  2
CENTER
 70
     0
  3
Center ____ _ ____ _ ____ _ ____ _ ____ _ ____
 72
    65
 73
     4
 40
10.16
 49
6.35
 74
     0
 49
-1.27
 74
     0
 49
1.27
 74
     0
 49
-1.27
 74
     0
  0
LTYPE
  5
71
330
5
100
AcDbSymbolTableRecord
100
AcDbLinetypeTableRecord
  2
CENTERX2
 70
     0
  3
Center (2x) ________  __  ________  __  _____
 72
    65
 73
     4
 40
20.32
 49
12.7
 74
     0
 49
-2.54
 74
     0
 49
2.54
 74
     0
 49
-2.54
 74
     0
  0
LTYPE
  5
72
330
5
100
AcDbSymbolTableRecord
100
AcDbLinetypeTableRecord
  2
DOT2
 70
     0
  3
Dot (.5x) ........................................
 72
    65
 73
     2
 40
0.635
 49
0.0
 74
     0
 49
-0.635
 74
     0
  0
ENDTAB
  0
TABLE
  2
LAYER
  5
2
330
0
100
AcDbSymbolTable
 70
    17
  0
LAYER
  5
10
330
2
100
AcDbSymbolTableRecord
100
AcDbLayerTableRecord
  2
0
 70
     0
 62
     7
  6
Continuous
370
    -3
390
F
  0
LAYER
  5
73
330
2
100
AcDbSymbolTableRecord
100
AcDbLayerTableRecord
  2
FORMAT
 70
     0
 62
     7
  6
Continuous
370
    -3
390
F
  0
LAYER
  5
74
330
2
100
AcDbSymbolTableRecord
100
AcDbLayerTableRecord
  2
YARDIMCI_GEOMETRI
 70
     0
 62
    -6
  6
Continuous
290
     0
370
    -3
390
F
  0
LAYER
  5
75
330
2
100
AcDbSymbolTableRecord
100
AcDbLayerTableRecord
  2
SAYFA_CERCEVESI
 70
     0
 62
     7
  6
Continuous
370
    25
390
F
  0
LAYER
  5
76
330
2
100
AcDbSymbolTableRecord
100
AcDbLayerTableRecord
  2
ANTET
 70
     0
 62
     7
  6
Continuous
370
    -3
390
F
  0
LAYER
  5
77
330
2
100
AcDbSymbolTableRecord
100
AcDbLayerTableRecord
  2
OLCU
 70
     0
 62
   150
  6
Continuous
370
    -3
390
F
  0
LAYER
  5
78
330
2
100
AcDbSymbolTableRecord
100
AcDbLayerTableRecord
  2
METIN
 70
     0
 62
    96
  6
Continuous
370
    -3
390
F
  0
LAYER
  5
79
330
2
100
AcDbSymbolTableRecord
100
AcDbLayerTableRecord
  2
BALON
 70
     0
 62
     5
  6
Continuous
370
    -3
390
F
  0
LAYER
  5
7A
330
2
100
AcDbSymbolTableRecord
100
AcDbLayerTableRecord
  2
VURGU
 70
     0
 62
     7
  6
Continuous
370
    -3
390
F
  0
LAYER
  5
7B
330
2
100
AcDbSymbolTableRecord
100
AcDbLayerTableRecord
  2
SILIK
 70
     0
 62
     7
  6
Continuous
370
    -3
390
F
  0
LAYER
  5
7C
330
2
100
AcDbSymbolTableRecord
100
AcDbLayerTableRecord
  2
MODEL
 70
     0
 62
     7
  6
Continuous
370
    -3
390
F
  0
LAYER
  5
7D
330
2
100
AcDbSymbolTableRecord
100
AcDbLayerTableRecord
  2
DETAYLANDıRMA
 70
     0
 62
   190
  6
Continuous
370
    -3
390
F
  0
LAYER
  5
7E
330
2
100
AcDbSymbolTableRecord
100
AcDbLayerTableRecord
  2
TOLERANS
 70
     0
 62
   230
  6
Continuous
370
    -3
390
F
  0
LAYER
  5
7F
330
2
100
AcDbSymbolTableRecord
100
AcDbLayerTableRecord
  2
MERKEZ_CIZGILERI
 70
     0
 62
    30
  6
Continuous
370
    -3
390
F
  0
LAYER
  5
80
330
2
100
AcDbSymbolTableRecord
100
AcDbLayerTableRecord
  2
KESIT-DETAY_CIZGILERI
 70
     0
 62
     7
  6
Continuous
370
    -3
390
F
  0
LAYER
  5
81
330
2
100
AcDbSymbolTableRecord
100
AcDbLayerTableRecord
  2
\U+041E\U+0421\U+0415\U+0412\U+042B\U+0415
 70
     0
 62
     7
  6
Continuous
370
    -3
390
F
  0
LAYER
  5
82
330
2
100
AcDbSymbolTableRecord
100
AcDbLayerTableRecord
  2
\U+0412\U+041E\U+0414\U+042F\U+041D\U+042B\U+0415_\U+0417\U+041D\U+0410\U+041A\U+0418
 70
     0
 62
    11
  6
Continuous
370
    -3
390
F
  0
ENDTAB
  0
TABLE
  2
STYLE
  5
3
330
0
100
AcDbSymbolTable
 70
     1
  0
STYLE
  5
11
330
3
100
AcDbSymbolTableRecord
100
AcDbTextStyleTableRecord
  2
Standard
 70
     0
 40
0.0
 41
1.0
 50
0.0
 71
     0
 42
3.5
  3
txt
  4

  0
ENDTAB
  0
TABLE
  2
VIEW
  5
6
330
0
100
AcDbSymbolTable
 70
     0
  0
ENDTAB
  0
TABLE
  2
UCS
  5
7
330
0
100
AcDbSymbolTable
 70
     0
  0
ENDTAB
  0
TABLE
  2
APPID
  5
9
330
0
100
AcDbSymbolTable
 70
     1
  0
APPID
  5
12
330
9
100
AcDbSymbolTableRecord
100
AcDbRegAppTableRecord
  2
ACAD
 70
     0
  0
ENDTAB
  0
TABLE
  2
DIMSTYLE
  5
A
330
0
100
AcDbSymbolTable
 70
     1
100
AcDbDimStyleTable
  0
DIMSTYLE
105
27
330
A
100
AcDbSymbolTableRecord
100
AcDbDimStyleTableRecord
  2
ISO-25
 70
     0
 41
2.5
 42
0.625
 43
3.75
 44
1.25
 73
     0
 74
     0
 77
     1
 78
     8
140
2.5
141
2.5
143
0.0393700787
147
0.625
171
     3
172
     1
178
     0
271
     2
272
     2
274
     3
278
    44
283
     0
284
     8
340
11
  0
ENDTAB
  0
TABLE
  2
BLOCK_RECORD
  5
1
330
0
100
AcDbSymbolTable
 70
     3
  0
BLOCK_RECORD
  5
1F
330
1
100
AcDbSymbolTableRecord
100
AcDbBlockTableRecord
  2
*Model_Space
340
22
  0
BLOCK_RECORD
  5
1B
330
1
100
AcDbSymbolTableRecord
100
AcDbBlockTableRecord
  2
*Paper_Space
340
1E
  0
BLOCK_RECORD
  5
23
330
1
100
AcDbSymbolTableRecord
100
AcDbBlockTableRecord
  2
*Paper_Space0
340
26
  0
BLOCK_RECORD
  5
A7
330
1
100
AcDbSymbolTableRecord
100
AcDbBlockTableRecord
  2
SW_CENTERMARKSYMBOL_0
340
0
102
{BLKREFS
331
B2
102
}
  0
BLOCK_RECORD
  5
C7
330
1
100
AcDbSymbolTableRecord
100
AcDbBlockTableRecord
  2
SW_CENTERMARKSYMBOL_1
340
0
102
{BLKREFS
331
D2
102
}
  0
ENDTAB
  0
ENDSEC
  0
SECTION
  2
BLOCKS
  0
BLOCK
  5
20
330
1F
100
AcDbEntity
  8
0
100
AcDbBlockBegin
  2
*Model_Space
 70
     0
 10
0.0
 20
0.0
 30
0.0
  3
*Model_Space
  1

  0
ENDBLK
  5
21
330
1F
100
AcDbEntity
  8
0
100
AcDbBlockEnd
  0
BLOCK
  5
1C
330
1B
100
AcDbEntity
 67
     1
  8
0
100
AcDbBlockBegin
  2
*Paper_Space
 70
     0
 10
0.0
 20
0.0
 30
0.0
  3
*Paper_Space
  1

  0
ENDBLK
  5
1D
330
1B
100
AcDbEntity
 67
     1
  8
0
100
AcDbBlockEnd
  0
BLOCK
  5
24
330
23
100
AcDbEntity
  8
0
100
AcDbBlockBegin
  2
*Paper_Space0
 70
     0
 10
0.0
 20
0.0
 30
0.0
  3
*Paper_Space0
  1

  0
ENDBLK
  5
25
330
23
100
AcDbEntity
  8
0
100
AcDbBlockEnd
  0
BLOCK
  5
A8
330
A7
100
AcDbEntity
  8
0
100
AcDbBlockBegin
  2
SW_CENTERMARKSYMBOL_0
 70
     0
 10
0.0
 20
0.0
 30
0.0
  3
SW_CENTERMARKSYMBOL_0
  1

  0
LINE
  5
AA
330
A7
100
AcDbEntity
  8
FORMAT
 62
     0
100
AcDbLine
 10
0.0
 20
0.0
 30
0.0
 11
0.0
 21
2.5
 31
0.0
  0
LINE
  5
AB
330
A7
100
AcDbEntity
  8
FORMAT
 62
     0
100
AcDbLine
 10
0.0
 20
0.0
 30
0.0
 11
-2.5
 21
0.0
 31
0.0
  0
LINE
  5
AC
330
A7
100
AcDbEntity
  8
FORMAT
 62
     0
100
AcDbLine
 10
0.0
 20
0.0
 30
0.0
 11
0.0
 21
-2.5
 31
0.0
  0
LINE
  5
AD
330
A7
100
AcDbEntity
  8
FORMAT
 62
     0
100
AcDbLine
 10
0.0
 20
0.0
 30
0.0
 11
2.5
 21
0.0
 31
0.0
  0
LINE
  5
AE
330
A7
100
AcDbEntity
  8
FORMAT
 62
     0
100
AcDbLine
 10
0.0
 20
5.0
 30
0.0
 11
0.0
 21
92.5
 31
0.0
  0
LINE
  5
AF
330
A7
100
AcDbEntity
  8
FORMAT
 62
     0
100
AcDbLine
 10
-5.0
 20
0.0
 30
0.0
 11
-92.5
 21
0.0
 31
0.0
  0
LINE
  5
B0
330
A7
100
AcDbEntity
  8
FORMAT
 62
     0
100
AcDbLine
 10
0.0
 20
-5.0
 30
0.0
 11
0.0
 21
-92.5
 31
0.0
  0
LINE
  5
B1
330
A7
100
AcDbEntity
  8
FORMAT
 62
     0
100
AcDbLine
 10
5.0
 20
0.0
 30
0.0
 11
92.5
 21
0.0
 31
0.0
  0
ENDBLK
  5
A9
330
A7
100
AcDbEntity
  8
0
100
AcDbBlockEnd
  0
BLOCK
  5
C8
330
C7
100
AcDbEntity
  8
0
100
AcDbBlockBegin
  2
SW_CENTERMARKSYMBOL_1
 70
     0
 10
0.0
 20
0.0
 30
0.0
  3
SW_CENTERMARKSYMBOL_1
  1

  0
LINE
  5
CA
330
C7
100
AcDbEntity
  8
FORMAT
 62
     0
100
AcDbLine
 10
0.0
 20
0.0
 30
0.0
 11
0.0
 21
2.5
 31
0.0
  0
LINE
  5
CB
330
C7
100
AcDbEntity
  8
FORMAT
 62
     0
100
AcDbLine
 10
0.0
 20
0.0
 30
0.0
 11
-2.5
 21
0.0
 31
0.0
  0
LINE
  5
CC
330
C7
100
AcDbEntity
  8
FORMAT
 62
     0
100
AcDbLine
 10
0.0
 20
0.0
 30
0.0
 11
0.0
 21
-2.5
 31
0.0
  0
LINE
  5
CD
330
C7
100
AcDbEntity
  8
FORMAT
 62
     0
100
AcDbLine
 10
0.0
 20
0.0
 30
0.0
 11
2.5
 21
0.0
 31
0.0
  0
LINE
  5
CE
330
C7
100
AcDbEntity
  8
FORMAT
 62
     0
100
AcDbLine
 10
0.0
 20
5.0
 30
0.0
 11
0.0
 21
92.5
 31
0.0
  0
LINE
  5
CF
330
C7
100
AcDbEntity
  8
FORMAT
 62
     0
100
AcDbLine
 10
-5.0
 20
0.0
 30
0.0
 11
-92.5
 21
0.0
 31
0.0
  0
LINE
  5
D0
330
C7
100
AcDbEntity
  8
FORMAT
 62
     0
100
AcDbLine
 10
0.0
 20
-5.0
 30
0.0
 11
0.0
 21
-92.5
 31
0.0
  0
LINE
  5
D1
330
C7
100
AcDbEntity
  8
FORMAT
 62
     0
100
AcDbLine
 10
5.0
 20
0.0
 30
0.0
 11
92.5
 21
0.0
 31
0.0
  0
ENDBLK
  5
C9
330
C7
100
AcDbEntity
  8
0
100
AcDbBlockEnd
  0
ENDSEC
  0
SECTION
  2
ENTITIES
  0
LINE
  5
83
330
1F
100
AcDbEntity
  8
0
  6
Continuous
 62
     7
370
    25
100
AcDbLine
 10
29.0879753196
 20
104.8553635064
 30
0.0
 11
29.0879753196
 21
-25.8654157933
 31
0.0
  0
LINE
  5
84
330
1F
100
AcDbEntity
  8
0
  6
Continuous
 62
     7
370
    25
100
AcDbLine
 10
209.0879824722
 20
-25.8654157933
 30
0.0
 11
209.0879824722
 21
104.8553635064
 31
0.0
  0
ARC
  5
85
330
1F
100
AcDbEntity
  8
0
  6
Continuous
 62
     7
370
    25
100
AcDbCircle
 10
209.0879788959
 20
104.8553635931
 30
0.0
 40
180.0
100
AcDbArc
 50
135.0
 51
180.0
  0
LINE
  5
86
330
1F
100
AcDbEntity
  8
0
  6
Continuous
 62
     7
370
    25
100
AcDbLine
 10
177.448369261
 20
327.7741868678
 30
0.0
 11
81.8087567353
 21
232.1345706168
 31
0.0
  0
LINE
  5
87
330
1F
100
AcDbEntity
  8
0
  6
Continuous
 62
     7
370
    25
100
AcDbLine
 10
209.0879824722
 20
104.8553635064
 30
0.0
 11
304.727583822
 21
200.4949797574
 31
0.0
  0
LINE
  5
88
330
1F
100
AcDbEntity
  8
0
  6
Continuous
 62
     7
370
    25
100
AcDbLine
 10
119.0879788959
 20
-25.8654157933
 30
0.0
 11
209.0879824722
 21
-25.8654157933
 31
0.0
  0
LINE
  5
89
330
1F
100
AcDbEntity
  8
0
  6
Continuous
 62
     7
370
    25
100
AcDbLine
 10
29.0879753196
 20
-25.8654157933
 30
0.0
 11
119.0879788959
 21
-25.8654157933
 31
0.0
  0
LWPOLYLINE
  5
8A
330
1F
100
AcDbEntity
  8
0
  6
Continuous
 62
     7
370
    25
100
AcDbPolyline
 90
       27
 70
   128
 43
0.0
 10
241.0879802668
 20
264.134575862
 10
244.9676987493
 20
260.2548499289
 10
248.8330003583
 20
256.3895781222
 10
252.6694682204
 20
252.5530953589
 10
256.4628717267
 20
248.7597067538
 10
260.1990696752
 20
245.0235088053
 10
263.8641741836
 20
241.3583893958
 10
267.4445506894
 20
237.7780277911
 10
270.9268775546
 20
234.2956860247
 10
274.2982056701
 20
230.9243579093
 10
277.5459733569
 20
227.6765902224
 10
280.6581404769
 20
224.5644231024
 10
283.6230841243
 20
221.5994794551
 10
286.4298072421
 20
218.7927563372
 10
289.0678492152
 20
216.1547143641
 10
291.5274050796
 20
213.6951584998
 10
293.799310621
 20
211.4232529584
 10
295.8751466834
 20
209.3474168959
 10
297.7471646631
 20
207.4753989163
 10
299.4084057176
 20
205.8141578618
 10
300.8526858651
 20
204.3698777142
 10
302.0746406877
 20
203.1479228917
 10
303.069725331
 20
202.1528382483
 10
303.8342294061
 20
201.3883341733
 10
304.365306791
 20
200.8572567883
 10
304.6609905326
 20
200.5615730468
 10
304.727583822
 20
200.4949797574
  0
LWPOLYLINE
  5
8B
330
1F
100
AcDbEntity
  8
0
  6
Continuous
 62
     7
370
    25
100
AcDbPolyline
 90
       27
 70
   128
 43
0.0
 10
177.448369261
 20
327.7741868678
 10
177.5149625504
 20
327.7076084796
 10
177.8106500172
 20
327.4119098368
 10
178.3417348528
 20
326.8808324519
 10
179.1062389278
 20
326.1163134757
 10
180.1013198459
 20
325.1212437335
 10
181.3232746684
 20
323.8992889109
 10
182.7675622666
 20
322.4550087634
 10
184.4287958705
 20
320.7937677088
 10
186.3008138501
 20
318.9217348281
 10
188.376642462
 20
316.8459136668
 10
190.648555454
 20
314.5739932242
 10
193.1081113183
 20
312.1144373599
 10
195.7461532914
 20
309.4763953868
 10
198.5528764093
 20
306.6697020713
 10
201.5178275072
 20
303.7047286216
 10
204.6299797261
 20
300.5925913039
 10
207.8777623141
 20
297.3447938147
 10
211.2490829789
 20
293.9734656993
 10
214.7314098441
 20
290.4911537352
 10
218.31178635
 20
286.9107623282
 10
221.9768908584
 20
283.245672721
 10
225.7130888068
 20
279.5094747725
 10
229.5064848625
 20
275.7160861674
 10
233.3429676258
 20
271.8796034041
 10
237.2082543337
 20
268.0143017951
 10
241.0879802668
 20
264.134575862
  0
LINE
  5
8C
330
1F
100
AcDbEntity
  8
0
  6
Continuous
 62
     1
370
    25
100
AcDbLine
 10
29.0879753196
 20
104.8553635064
 30
0.0
 11
209.0879824722
 21
104.8553635064
 31
0.0
  0
LWPOLYLINE
  5
8D
330
1F
100
AcDbEntity
  8
0
  6
Continuous
 62
     1
370
    25
100
AcDbPolyline
 90
       54
 70
   128
 43
0.0
 10
81.8087567353
 20
232.1345706168
 10
81.838357892
 20
232.1049769107
 10
82.0749920571
 20
231.8683464709
 10
82.5473774934
 20
231.3959498587
 10
83.2537595892
 20
230.6895752135
 10
84.1915120148
 20
229.7518451396
 10
85.3571404481
 20
228.586186904
 10
86.7463123762
 20
227.1970410529
 10
88.3538626843
 20
225.589473981
 10
90.1738066935
 20
223.7695355597
 10
92.1993755513
 20
221.743961114
 10
94.4230348581
 20
219.5203055325
 10
96.8365107441
 20
217.1068389598
 10
99.4308271223
 20
214.5125169936
 10
102.196329903
 20
211.7470104876
 10
105.1227354222
 20
208.8206012431
 10
108.1991537252
 20
205.7441820088
 10
111.4141411857
 20
202.5291968766
 10
114.7557386906
 20
199.1875965777
 10
118.2115149462
 20
195.7318235818
 10
121.7686139756
 20
192.1747226897
 10
125.4138030821
 20
188.5295410338
 10
129.1335222089
 20
184.8098237696
 10
132.9139337653
 20
181.0294140759
 10
136.7409747803
 20
177.2023637477
 10
140.6004071945
 20
173.3429331961
 10
144.477873739
 20
169.4654722396
 10
148.3589500898
 20
165.5843903008
 10
152.229200747
 20
161.7141415063
 10
156.0742256009
 20
157.8691203776
 10
159.8797213995
 20
154.0636171284
 10
163.6315320396
 20
150.3118176642
 10
167.3156988585
 20
146.6276396695
 10
170.9185202384
 20
143.0248220149
 10
174.4265888595
 20
139.5167608443
 10
177.82685503
 20
136.1164797726
 10
181.1066751146
 20
132.8366745892
 10
184.2538413369
 20
129.6895046416
 10
187.2566488349
 20
126.6866971436
 10
190.1039254629
 20
123.839413065
 10
192.785083946
 20
121.1582620326
 10
195.2901479566
 20
118.653198022
 10
197.6097968185
 20
116.3335491601
 10
199.7353953087
 20
114.2079432193
 10
201.6590458119
 20
112.2842927161
 10
203.37358832
 20
110.569750208
 10
204.8726525867
 20
109.0706933919
 10
206.1506432259
 20
107.7926953021
 10
207.2028216684
 20
106.7405243102
 10
208.0252763593
 20
105.9180696192
 10
208.6149302089
 20
105.3284157696
 10
208.9696076476
 20
104.9737383309
 10
209.0879824722
 20
104.8553635064
 10
209.0879824722
 20
104.8553635064
  0
LINE
  5
8E
330
1F
100
AcDbEntity
  8
0
  6
Continuous
 62
     7
370
    25
100
AcDbLine
 10
-248.3864267349
 20
264.134575862
 30
0.0
 11
-248.3864267349
 21
168.4949745122
 31
0.0
  0
LINE
  5
8F
330
1F
100
AcDbEntity
  8
0
  6
Continuous
 62
     7
370
    25
100
AcDbLine
 10
-68.3864195823
 20
168.4949745122
 30
0.0
 11
-68.3864195823
 21
264.134575862
 31
0.0
  0
LINE
  5
90
330
1F
100
AcDbEntity
  8
0
  6
Continuous
 62
     7
370
    25
100
AcDbLine
 10
-248.3864267349
 20
168.4949745122
 30
0.0
 11
-248.3864267349
 21
104.8553635064
 31
0.0
  0
LINE
  5
91
330
1F
100
AcDbEntity
  8
0
  6
Continuous
 62
     7
370
    25
100
AcDbLine
 10
-68.3864195823
 20
104.8553635064
 30
0.0
 11
-68.3864195823
 21
168.4949745122
 31
0.0
  0
LINE
  5
92
330
1F
100
AcDbEntity
  8
0
  6
Continuous
 62
     7
370
    25
100
AcDbLine
 10
-248.3864267349
 20
104.8553635064
 30
0.0
 11
-248.3864267349
 21
-25.8654157933
 31
0.0
  0
LINE
  5
93
330
1F
100
AcDbEntity
  8
0
  6
Continuous
 62
     7
370
    25
100
AcDbLine
 10
-68.3864195823
 20
-25.8654157933
 30
0.0
 11
-68.3864195823
 21
104.8553635064
 31
0.0
  0
LWPOLYLINE
  5
94
330
1F
100
AcDbEntity
  8
0
  6
Continuous
 62
     7
370
    25
100
AcDbPolyline
 90
      104
 70
   128
 43
0.0
 10
-248.3864267349
 20
264.134575862
 10
-248.2190196394
 20
260.2548499289
 10
-247.7174316525
 20
256.3895781222
 10
-246.8835328697
 20
252.5530953589
 10
-245.7204152822
 20
248.7597067538
 10
-244.2324076771
 20
245.0235088053
 10
-242.4250458359
 20
241.3583893958
 10
-240.3050576329
 20
237.7780277911
 10
-237.8803257822
 20
234.2956860247
 10
-235.1598729371
 20
230.9243579093
 10
-232.153816986
 20
227.6765902224
 10
-228.8733412504
 20
224.5644231024
 10
-225.3306497812
 20
221.5994794551
 10
-221.5389226555
 20
218.7927563372
 10
-217.5122600972
 20
216.1547143641
 10
-213.2656489491
 20
213.6951584998
 10
-208.814884442
 20
211.4232529584
 10
-204.1765217661
 20
209.3474168959
 10
-199.367816466
 20
207.4753989163
 10
-194.4066573858
 20
205.8141578618
 10
-189.3114996135
 20
204.3698777142
 10
-184.1012992888
 20
203.1479228917
 10
-178.7954390972
 20
202.1528382483
 10
-173.4136546954
 20
201.3883341733
 10
-167.9759685873
 20
200.8572567883
 10
-162.5026081681
 20
200.5615730468
 10
-157.0139358743
 20
200.5023707333
 10
-151.530369091
 20
200.6799031678
 10
-146.0723075076
 20
201.0934699956
 10
-140.6600558191
 20
201.7415661994
 10
-135.3137464254
 20
202.6217777911
 10
-130.0532695829
 20
203.7308116141
 10
-124.8981942415
 20
205.0645549479
 10
-119.8676963329
 20
206.6180308047
 10
-114.9804917156
 20
208.3854873362
 10
-110.254756081
 20
210.3603233281
 10
-105.7080765247
 20
212.535207409
 10
-101.3573658644
 20
214.9020482484
 10
-97.2188030361
 20
217.4520243588
 10
-93.3077921151
 20
220.175673503
 10
-89.6388729095
 20
223.0628479901
 10
-86.2257023334
 20
226.1028189841
 10
-83.0809761762
 20
229.2842765036
 10
-80.2163918495
 20
232.5953443232
 10
-77.6425962328
 20
236.0237736884
 10
-75.3691782235
 20
239.5567794028
 10
-73.4045942306
 20
243.18118884
 10
-71.7561458229
 20
246.8835611525
 10
-70.4299648284
 20
250.6501276675
 10
-69.430990982
 20
254.4668216887
 10
-68.7629346728
 20
258.3195169154
 10
-68.4282843947
 20
262.1938188258
 10
-68.4282843947
 20
266.0753627005
 10
-68.7629346728
 20
269.9496646109
 10
-69.430990982
 20
273.8023300353
 10
-70.4299648284
 20
277.6190538588
 10
-71.7561458229
 20
281.3855905715
 10
-73.4045942306
 20
285.087962884
 10
-75.3691782235
 20
288.7124021235
 10
-77.6425962328
 20
292.2453780356
 10
-80.2163918495
 20
295.6738074008
 10
-83.0809761762
 20
298.9849050227
 10
-86.2257023334
 20
302.1663625422
 10
-89.6388729095
 20
305.2063186351
 10
-93.3077921151
 20
308.0935080233
 10
-97.2188030361
 20
310.8171422663
 10
-101.3573658644
 20
313.3671183768
 10
-105.7080765247
 20
315.7339592162
 10
-110.254756081
 20
317.9088432971
 10
-114.9804917156
 20
319.8836941901
 10
-119.8676963329
 20
321.6511507216
 10
-124.8981942415
 20
323.2046265784
 10
-130.0532695829
 20
324.5383699122
 10
-135.3137464254
 20
325.6474037352
 10
-140.6600558191
 20
326.5275855246
 10
-146.0723075076
 20
327.1756966296
 10
-151.530369091
 20
327.5892634574
 10
-157.0139358743
 20
327.7667958918
 10
-162.5026081681
 20
327.7076084796
 10
-167.9759685873
 20
327.4119098368
 10
-173.4136546954
 20
326.8808324519
 10
-178.7954390972
 20
326.1163134757
 10
-184.1012992888
 20
325.1212437335
 10
-189.3114996135
 20
323.8992889109
 10
-194.4066573858
 20
322.4550087634
 10
-199.367816466
 20
320.7937677088
 10
-204.1765217661
 20
318.9217348281
 10
-208.814884442
 20
316.8459136668
 10
-213.2656489491
 20
314.5739932242
 10
-217.5122600972
 20
312.1144373599
 10
-221.5389226555
 20
309.4763953868
 10
-225.3306497812
 20
306.6697020713
 10
-228.8733412504
 20
303.7047286216
 10
-232.153816986
 20
300.5925913039
 10
-235.1598729371
 20
297.3447938147
 10
-237.8803257822
 20
293.9734656993
 10
-240.3050576329
 20
290.4911537352
 10
-242.4250458359
 20
286.9107623282
 10
-244.2324076771
 20
283.245672721
 10
-245.7204152822
 20
279.5094747725
 10
-246.8835328697
 20
275.7160861674
 10
-247.7174316525
 20
271.8796034041
 10
-248.2190196394
 20
268.0143017951
 10
-248.3864267349
 20
264.134575862
  0
LWPOLYLINE
  5
95
330
1F
100
AcDbEntity
  8
0
  6
Continuous
 62
     7
370
    25
100
AcDbPolyline
 90
       98
 70
   128
 43
0.0
 10
-237.6864244222
 20
264.134575862
 10
-237.5201200127
 20
267.7642305079
 10
-237.0218996882
 20
271.3786263648
 10
-236.1938496112
 20
274.9626536551
 10
-235.0394566535
 20
278.5012622061
 10
-233.5635487913
 20
281.9796104613
 10
-231.7723249077
 20
285.3830952826
 10
-229.6732951879
 20
288.69747116
 10
-227.2752662181
 20
291.9088204089
 10
-224.5882888316
 20
295.0037021819
 10
-221.6236357569
 20
297.9690630618
 10
-218.3937494635
 20
300.7925350848
 10
-214.9121676564
 20
303.4622569266
 10
-211.193500924
 20
305.9669931117
 10
-207.2533396065
 20
308.2963128272
 10
-203.1082165419
 20
310.4403813067
 10
-198.7755102097
 20
312.3902280513
 10
-194.2734037518
 20
314.1376574221
 10
-189.6207713514
 20
315.6753678504
 10
-184.8371316671
 20
316.996892232
 10
-179.9425472497
 20
318.0967171374
 10
-174.9575500368
 20
318.9701934043
 10
-169.9030491515
 20
319.6136553469
 10
-164.8002419613
 20
320.0244505587
 10
-159.6705335184
 20
320.2007909003
 10
-154.5354390043
 20
320.1419909182
 10
-149.4164968833
 20
319.8482592288
 10
-144.3351776331
 20
319.3208773318
 10
-139.3127934068
 20
318.5619909945
 10
-134.3704116523
 20
317.5748486701
 10
-129.5287617474
 20
316.3635332766
 10
-124.8081502497
 20
314.9331410113
 10
-120.2283789396
 20
313.2897217456
 10
-115.8086535513
 20
311.4401002112
 10
-111.5675148546
 20
309.3920548144
 10
-107.5227511107
 20
307.1541984263
 10
-103.6913272917
 20
304.7359187785
 10
-100.0893142998
 20
302.1473188582
 10
-96.7318181872
 20
299.3993063155
 10
-93.6329280018
 20
296.5033550444
 10
-90.8056263804
 20
293.4716541949
 10
-88.2617895483
 20
290.3168995562
 10
-86.0120792865
 20
287.0523233596
 10
-84.0659280299
 20
283.6916048709
 10
-82.4315090656
 20
280.248870391
 10
-81.1156694769
 20
276.7385740462
 10
-80.1239301442
 20
273.1753785792
 10
-79.4604484915
 20
269.5742745581
 10
-79.1280110359
 20
265.9503419581
 10
-79.1280110359
 20
262.3188097659
 10
-79.4604484915
 20
258.6949069682
 10
-80.1239301442
 20
255.0938029471
 10
-81.1156694769
 20
251.5306074801
 10
-82.4315090656
 20
248.020281333
 10
-84.0659280299
 20
244.5775468531
 10
-86.0120792865
 20
241.2168581668
 10
-88.2617895483
 20
237.9522819701
 10
-90.8056263804
 20
234.7975273314
 10
-93.6329280018
 20
231.7658264819
 10
-96.7318181872
 20
228.8698752108
 10
-100.0893142998
 20
226.1218328658
 10
-103.6913272917
 20
223.5332478467
 10
-107.5227511107
 20
221.1149532977
 10
-111.5675148546
 20
218.8770969096
 10
-115.8086535513
 20
216.8290664139
 10
-120.2283789396
 20
214.9794597808
 10
-124.8081502497
 20
213.3360107127
 10
-129.5287617474
 20
211.9056333485
 10
-134.3704116523
 20
210.6943328562
 10
-139.3127934068
 20
209.7071756306
 10
-144.3351776331
 20
208.9483041945
 10
-149.4164968833
 20
208.4208924952
 10
-154.5354390043
 20
208.1271757069
 10
-159.6705335184
 20
208.0683757249
 10
-164.8002419613
 20
208.2447309676
 10
-169.9030491515
 20
208.6554963771
 10
-174.9575500368
 20
209.2989732209
 10
-179.9425472497
 20
210.1724494878
 10
-184.8371316671
 20
211.272259492
 10
-189.6207713514
 20
212.5937987748
 10
-194.2734037518
 20
214.131509203
 10
-198.7755102097
 20
215.8789534751
 10
-203.1082165419
 20
217.8288002196
 10
-207.2533396065
 20
219.9728686991
 10
-211.193500924
 20
222.3021586123
 10
-214.9121676564
 20
224.8069245997
 10
-218.3937494635
 20
227.4766464415
 10
-221.6236357569
 20
230.3000886622
 10
-224.5882888316
 20
233.2654793444
 10
-227.2752662181
 20
236.3603313151
 10
-229.6732951879
 20
239.571680564
 10
-231.7723249077
 20
242.8860564414
 10
-233.5635487913
 20
246.289571065
 10
-235.0394566535
 20
249.7679193202
 10
-236.1938496112
 20
253.3065278712
 10
-237.0218996882
 20
256.8905551615
 10
-237.5201200127
 20
260.5049510184
 10
-237.6864244222
 20
264.134575862
  0
LINE
  5
96
330
1F
100
AcDbEntity
  8
0
  6
Continuous
 62
     7
370
    25
100
AcDbLine
 10
-248.3864267349
 20
-25.8654157933
 30
0.0
 11
-68.3864195823
 21
-25.8654157933
 31
0.0
  0
LWPOLYLINE
  5
97
330
1F
100
AcDbEntity
  8
0
  6
Continuous
 62
     1
370
    25
100
AcDbPolyline
 90
       27
 70
   128
 43
0.0
 10
-158.3864231586
 20
104.8553635064
 10
-152.8996656641
 20
104.9737383309
 10
-147.4333190351
 20
105.3284157696
 10
-142.0077187001
 20
105.9180696192
 10
-136.6430492132
 20
106.7405243102
 10
-131.3592650919
 20
107.7926953021
 10
-126.1760246932
 20
109.0706933919
 10
-121.1126101195
 20
110.569750208
 10
-116.187854576
 20
112.2842927161
 10
-111.4200790405
 20
114.2079432193
 10
-106.8270233452
 20
116.3335491601
 10
-102.4257716715
 20
118.653198022
 10
-98.2327003955
 20
121.1582620326
 10
-94.2634035825
 20
123.839413065
 10
-90.5326445579
 20
126.6866971436
 10
-87.0543112039
 20
129.6895046416
 10
-83.8413302779
 20
132.8366745892
 10
-80.9056674122
 20
136.1164797726
 10
-78.2582377075
 20
139.5167608443
 10
-75.9088908314
 20
143.0248220149
 10
-73.8663663148
 20
146.6276396695
 10
-72.13826375
 20
150.3118176642
 10
-70.7310055374
 20
154.0636171284
 10
-69.6498368859
 20
157.8691203776
 10
-68.8987662076
 20
161.7141415063
 10
-68.4806023716
 20
165.5843903008
 10
-68.3864195823
 20
168.4949745122
  0
LWPOLYLINE
  5
98
330
1F
100
AcDbEntity
  8
0
  6
Continuous
 62
     1
370
    25
100
AcDbPolyline
 90
       27
 70
   128
 43
0.0
 10
-248.3864267349
 20
168.4949745122
 10
-248.2922439455
 20
165.5843903008
 10
-247.8740801095
 20
161.7141415063
 10
-247.1230094313
 20
157.8691203776
 10
-246.0418407797
 20
154.0636171284
 10
-244.6345825671
 20
150.3118176642
 10
-242.9064800023
 20
146.6276396695
 10
-240.8639554858
 20
143.0248220149
 10
-238.5146086096
 20
139.5167608443
 10
-235.8671789049
 20
136.1164797726
 10
-232.9315160393
 20
132.8366745892
 10
-229.7185351133
 20
129.6895046416
 10
-226.2402017593
 20
126.6866971436
 10
-222.5094427347
 20
123.839413065
 10
-218.5401459216
 20
121.1582620326
 10
-214.3470746457
 20
118.653198022
 10
-209.945822972
 20
116.3335491601
 10
-205.3527672767
 20
114.2079432193
 10
-200.5849917411
 20
112.2842927161
 10
-195.6602361976
 20
110.569750208
 10
-190.596821624
 20
109.0706933919
 10
-185.4135812252
 20
107.7926953021
 10
-180.1297971039
 20
106.7405243102
 10
-174.7651276171
 20
105.9180696192
 10
-169.3395272821
 20
105.3284157696
 10
-163.8731806531
 20
104.9737383309
 10
-158.3864231586
 20
104.8553635064
  0
ARC
  5
99
330
1F
100
AcDbEntity
  8
0
  6
Continuous
 62
     1
370
    25
100
AcDbCircle
 10
-158.3864231586
 20
117.5234864815
 30
0.0
 40
107.1202255134221
100
AcDbArc
 50
67.2568061311
 51
112.7431938689
  0
LINE
  5
9A
330
1F
100
AcDbEntity
  8
0
  6
Continuous
 62
     1
370
    25
100
AcDbLine
 10
-158.3864231586
 20
104.8553635064
 30
0.0
 11
-68.3864195823
 21
104.8553635064
 31
0.0
  0
LINE
  5
9B
330
1F
100
AcDbEntity
  8
0
  6
Continuous
 62
     1
370
    25
100
AcDbLine
 10
-248.3864267349
 20
104.8553635064
 30
0.0
 11
-158.3864231586
 21
104.8553635064
 31
0.0
  0
LINE
  5
9C
330
1F
100
AcDbEntity
  8
0
  6
Continuous
 62
     7
370
    25
100
AcDbLine
 10
241.0879802668
 20
582.8224541332
 30
0.0
 11
145.4483677411
 21
582.8224541332
 31
0.0
  0
LINE
  5
9D
330
1F
100
AcDbEntity
  8
0
  6
Continuous
 62
     7
370
    25
100
AcDbLine
 10
145.4483677411
 20
402.8224469807
 30
0.0
 11
241.0879802668
 21
402.8224469807
 31
0.0
  0
LINE
  5
9E
330
1F
100
AcDbEntity
  8
0
  6
Continuous
 62
     7
370
    25
100
AcDbLine
 10
145.4483677411
 20
582.8224541332
 30
0.0
 11
119.0879788959
 21
582.8224541332
 31
0.0
  0
LINE
  5
9F
330
1F
100
AcDbEntity
  8
0
  6
Continuous
 62
     7
370
    25
100
AcDbLine
 10
119.0879788959
 20
402.8224469807
 30
0.0
 11
145.4483677411
 21
402.8224469807
 31
0.0
  0
CIRCLE
  5
A0
330
1F
100
AcDbEntity
  8
0
  6
Continuous
 62
     7
370
    25
100
AcDbCircle
 10
119.0879788959
 20
492.8224505569
 30
0.0
 40
79.29999999999995
  0
CIRCLE
  5
A1
330
1F
100
AcDbEntity
  8
0
  6
Continuous
 62
     7
370
    25
100
AcDbCircle
 10
119.0879788959
 20
492.8224505569
 30
0.0
 40
90.0
  0
LWPOLYLINE
  5
A2
330
1F
100
AcDbEntity
  8
0
  6
Continuous
 62
     7
370
    25
100
AcDbPolyline
 90
       53
 70
   128
 43
0.0
 10
241.0879802668
 20
582.8224541332
 10
244.9676987493
 20
582.6550470378
 10
248.8330003583
 20
582.1534590508
 10
252.6694682204
 20
581.3195602681
 10
256.4628717267
 20
580.1564426806
 10
260.1990696752
 20
578.6684350755
 10
263.8641741836
 20
576.8610732343
 10
267.4445506894
 20
574.7410850312
 10
270.9268775546
 20
572.3163531806
 10
274.2982056701
 20
569.5959003355
 10
277.5459733569
 20
566.5898443844
 10
280.6581404769
 20
563.3093686487
 10
283.6230841243
 20
559.7666771795
 10
286.4298072421
 20
555.9749500539
 10
289.0678492152
 20
551.9482874956
 10
291.5274050796
 20
547.7016763474
 10
293.799310621
 20
543.2509118404
 10
295.8751466834
 20
538.6125491645
 10
297.7471646631
 20
533.8038438644
 10
299.4084057176
 20
528.8426847841
 10
300.8526858651
 20
523.7475270118
 10
302.0746406877
 20
518.5373266872
 10
303.069725331
 20
513.2314664956
 10
303.8342294061
 20
507.8496820938
 10
304.365306791
 20
502.4119959857
 10
304.6609905326
 20
496.9386355664
 10
304.720192846
 20
491.4499632727
 10
304.5426604116
 20
485.9663964893
 10
304.1290935838
 20
480.508334906
 10
303.48099738
 20
475.0960832175
 10
302.6007857883
 20
469.7497738238
 10
301.4917519653
 20
464.4892969813
 10
300.1580086314
 20
459.3342216398
 10
298.6045327747
 20
454.3037237312
 10
296.8370762431
 20
449.416519114
 10
294.8622402513
 20
444.6907834794
 10
292.6873561704
 20
440.144103923
 10
290.320515331
 20
435.7933932628
 10
287.7705392205
 20
431.6548304345
 10
285.0468900764
 20
427.7438195135
 10
282.1597155893
 20
424.0749003078
 10
279.1197445953
 20
420.6617297318
 10
275.9383019769
 20
417.5170035746
 10
272.627204355
 20
414.6524192478
 10
269.198789891
 20
412.0786236312
 10
265.6657841766
 20
409.8052056219
 10
262.0413598382
 20
407.840621629
 10
258.3389875257
 20
406.1921732213
 10
254.5724359119
 20
404.8659922268
 10
250.7557269895
 20
403.8670183804
 10
246.903046664
 20
403.1989620711
 10
243.0287447536
 20
402.864311793
 10
241.0879802668
 20
402.8224469807
  0
ARC
  5
A3
330
1F
100
AcDbEntity
  8
0
  6
Continuous
 62
     7
370
    25
100
AcDbCircle
 10
293.7355596472
 20
492.8224505569
 30
0.0
 40
108.7545775144263
100
AcDbArc
 50
161.5783550632
 51
198.4216449368
  0
LWPOLYLINE
  5
A4
330
1F
100
AcDbEntity
  8
0
  6
Continuous
 62
     1
370
    25
100
AcDbPolyline
 90
       27
 70
   128
 43
0.0
 10
209.0879824722
 20
492.8224505569
 10
208.9696076476
 20
487.3356930624
 10
208.6149302089
 20
481.8693464335
 10
208.0252763593
 20
476.4437460985
 10
207.2028216684
 20
471.0790766116
 10
206.1506432259
 20
465.7952924903
 10
204.8726525867
 20
460.6120520916
 10
203.37358832
 20
455.5486375179
 10
201.6590458119
 20
450.6238819744
 10
199.7353953087
 20
445.8561064388
 10
197.6097968185
 20
441.2630507435
 10
195.2901479566
 20
436.8617990698
 10
192.785083946
 20
432.6687277939
 10
190.1039254629
 20
428.6994309809
 10
187.2566488349
 20
424.9686719563
 10
184.2538413369
 20
421.4903386023
 10
181.1066751146
 20
418.2773576762
 10
177.82685503
 20
415.3416948106
 10
174.4265888595
 20
412.6942651059
 10
170.9185202384
 20
410.3449182298
 10
167.3156988585
 20
408.3023937132
 10
163.6315320396
 20
406.5742911484
 10
159.8797213995
 20
405.1670329358
 10
156.0742256009
 20
404.0858642842
 10
152.229200747
 20
403.334793606
 10
148.3589500898
 20
402.91662977
 10
145.4483677411
 20
402.8224469807
  0
LWPOLYLINE
  5
A5
330
1F
100
AcDbEntity
  8
0
  6
Continuous
 62
     1
370
    25
100
AcDbPolyline
 90
       27
 70
   128
 43
0.0
 10
145.4483677411
 20
582.8224541332
 10
148.3589500898
 20
582.7282713439
 10
152.229200747
 20
582.3101075079
 10
156.0742256009
 20
581.5590368297
 10
159.8797213995
 20
580.4778681781
 10
163.6315320396
 20
579.0706099655
 10
167.3156988585
 20
577.3425074007
 10
170.9185202384
 20
575.2999828841
 10
174.4265888595
 20
572.950636008
 10
177.82685503
 20
570.3032063033
 10
181.1066751146
 20
567.3675434377
 10
184.2538413369
 20
564.1545625116
 10
187.2566488349
 20
560.6762291576
 10
190.1039254629
 20
556.945470133
 10
192.785083946
 20
552.97617332
 10
195.2901479566
 20
548.7831020441
 10
197.6097968185
 20
544.3818503704
 10
199.7353953087
 20
539.7887946751
 10
201.6590458119
 20
535.0210191395
 10
203.37358832
 20
530.096263596
 10
204.8726525867
 20
525.0328490223
 10
206.1506432259
 20
519.8496086236
 10
207.2028216684
 20
514.5658245023
 10
208.0252763593
 20
509.2011550154
 10
208.6149302089
 20
503.7755546804
 10
208.9696076476
 20
498.3092080515
 10
209.0879824722
 20
492.8224505569
  0
LWPOLYLINE
  5
A6
330
1F
100
AcDbEntity
  8
0
  6
Continuous
 62
     1
370
    25
100
AcDbPolyline
 90
       44
 70
   128
 43
0.0
 10
134.5295372197
 20
570.6045077827
 10
131.0816972294
 20
569.4754840519
 10
127.6033489743
 20
567.9995761897
 10
124.1998492518
 20
566.2083523061
 10
120.8854725595
 20
564.1093225863
 10
117.6741213315
 20
561.7112936165
 10
114.5792647043
 20
559.02431623
 10
111.6138842666
 20
556.0596631553
 10
108.7904169002
 20
552.8297768619
 10
106.1207062343
 20
549.3481950547
 10
103.6159495601
 20
545.6295283224
 10
101.286651265
 20
541.6893670048
 10
99.1425846481
 20
537.5442439403
 10
97.1927397662
 20
533.2115376081
 10
95.4452954942
 20
528.7094311502
 10
93.9075813406
 20
524.0567987498
 10
92.5860476458
 20
519.2731590654
 10
91.4862357789
 20
514.3785746481
 10
90.6127613747
 20
509.3935774352
 10
89.9692845309
 20
504.3390765499
 10
89.5585079455
 20
499.2362693596
 10
89.3821527028
 20
494.1065609168
 10
89.4409582728
 20
488.9714664027
 10
89.7346787864
 20
483.8525242816
 10
90.2620811724
 20
478.7712050315
 10
91.0209544712
 20
473.7488208051
 10
92.0081154221
 20
468.8064390506
 10
93.219423365
 20
463.9647891458
 10
94.6497970038
 20
459.244177648
 10
96.2932386213
 20
454.6644063379
 10
98.1428527051
 20
450.2446809496
 10
100.1908832007
 20
446.003542253
 10
102.4287395888
 20
441.9587785091
 10
104.8470350691
 20
438.12735469
 10
107.4356266075
 20
434.5253416981
 10
110.1836568454
 20
431.1678455855
 10
113.0795992689
 20
428.0689554002
 10
116.1113078018
 20
425.2416537787
 10
119.266066093
 20
422.6978169467
 10
122.5306418968
 20
420.4481066849
 10
125.8913429232
 20
418.5019554283
 10
129.3340722808
 20
416.8675364639
 10
132.8443909773
 20
415.5516968753
 10
134.5295372197
 20
415.0403933312
  0
INSERT
  5
B2
330
1F
100
AcDbEntity
  8
FORMAT
 62
     7
100
AcDbBlockReference
  2
SW_CENTERMARKSYMBOL_0
 10
119.0879788959
 20
492.8224505569
 30
0.0
  0
LINE
  5
B3
330
1F
100
AcDbEntity
  8
0
  6
Continuous
 62
     7
370
    25
100
AcDbLine
 10
392.5170308231
 20
104.8553635064
 30
0.0
 11
392.5170308231
 21
-25.8654157933
 31
0.0
  0
LINE
  5
B4
330
1F
100
AcDbEntity
  8
0
  6
Continuous
 62
     7
370
    25
100
AcDbLine
 10
572.5170379756
 20
-25.8654157933
 30
0.0
 11
572.5170379756
 21
104.8553635064
 31
0.0
  0
LINE
  5
B5
330
1F
100
AcDbEntity
  8
0
  6
Continuous
 62
     7
370
    25
100
AcDbLine
 10
572.5170379756
 20
104.8553635064
 30
0.0
 11
572.5170379756
 21
168.4949745122
 31
0.0
  0
LINE
  5
B6
330
1F
100
AcDbEntity
  8
0
  6
Continuous
 62
     7
370
    25
100
AcDbLine
 10
392.5170308231
 20
168.4949745122
 30
0.0
 11
392.5170308231
 21
104.8553635064
 31
0.0
  0
LINE
  5
B7
330
1F
100
AcDbEntity
  8
0
  6
Continuous
 62
     7
370
    25
100
AcDbLine
 10
392.5170308231
 20
264.134575862
 30
0.0
 11
392.5170308231
 21
168.4949745122
 31
0.0
  0
LINE
  5
B8
330
1F
100
AcDbEntity
  8
0
  6
Continuous
 62
     7
370
    25
100
AcDbLine
 10
572.5170379756
 20
168.4949745122
 30
0.0
 11
572.5170379756
 21
264.134575862
 31
0.0
  0
LINE
  5
B9
330
1F
100
AcDbEntity
  8
0
  6
Continuous
 62
     7
370
    25
100
AcDbLine
 10
392.5170308231
 20
-25.8654157933
 30
0.0
 11
572.5170379756
 21
-25.8654157933
 31
0.0
  0
LWPOLYLINE
  5
BA
330
1F
100
AcDbEntity
  8
0
  6
Continuous
 62
     7
370
    25
100
AcDbPolyline
 90
       54
 70
   128
 43
0.0
 10
392.5170308231
 20
264.134575862
 10
392.5588956355
 20
266.0753627005
 10
392.8935459135
 20
269.9496646109
 10
393.5616022228
 20
273.8023300353
 10
394.5605760692
 20
277.6190538588
 10
395.8867570637
 20
281.3855905715
 10
397.5352054714
 20
285.087962884
 10
399.4997894643
 20
288.7124021235
 10
401.7732074736
 20
292.2453780356
 10
404.3470030902
 20
295.6738074008
 10
407.211587417
 20
298.9849050227
 10
410.3563135742
 20
302.1663625422
 10
413.7694841503
 20
305.2063186351
 10
417.4384033559
 20
308.0935080233
 10
421.3494142769
 20
310.8171422663
 10
425.4879771052
 20
313.3671183768
 10
429.8386877654
 20
315.7339592162
 10
434.3853673218
 20
317.9088432971
 10
439.1111029564
 20
319.8836941901
 10
443.9983075736
 20
321.6511507216
 10
449.0288054822
 20
323.2046265784
 10
454.1838808237
 20
324.5383699122
 10
459.4443576662
 20
325.6474037352
 10
464.7906670599
 20
326.5275855246
 10
470.2029187484
 20
327.1756966296
 10
475.6609803317
 20
327.5892634574
 10
481.1445471151
 20
327.7667958918
 10
486.6332194088
 20
327.7076084796
 10
492.1065798281
 20
327.4119098368
 10
497.5442659362
 20
326.8808324519
 10
502.926050338
 20
326.1163134757
 10
508.2319105296
 20
325.1212437335
 10
513.4421108542
 20
323.8992889109
 10
518.5372686265
 20
322.4550087634
 10
523.4984277068
 20
320.7937677088
 10
528.3071330069
 20
318.9217348281
 10
532.9454956828
 20
316.8459136668
 10
537.3962601899
 20
314.5739932242
 10
541.642871338
 20
312.1144373599
 10
545.6695338963
 20
309.4763953868
 10
549.4612610219
 20
306.6697020713
 10
553.0039524911
 20
303.7047286216
 10
556.2844282268
 20
300.5925913039
 10
559.2904841779
 20
297.3447938147
 10
562.010937023
 20
293.9734656993
 10
564.4356688736
 20
290.4911537352
 10
566.5556570767
 20
286.9107623282
 10
568.3630189179
 20
283.245672721
 10
569.851026523
 20
279.5094747725
 10
571.0141441105
 20
275.7160861674
 10
571.8480428933
 20
271.8796034041
 10
572.3496308802
 20
268.0143017951
 10
572.5170379756
 20
264.134575862
 10
572.5170379756
 20
264.134575862
  0
LINE
  5
BB
330
1F
100
AcDbEntity
  8
0
  6
Continuous
 62
     1
370
    25
100
AcDbLine
 10
392.5170308231
 20
104.8553635064
 30
0.0
 11
572.5170379756
 21
104.8553635064
 31
0.0
  0
LWPOLYLINE
  5
BC
330
1F
100
AcDbEntity
  8
0
  6
Continuous
 62
     1
370
    25
100
AcDbPolyline
 90
       54
 70
   128
 43
0.0
 10
392.5170308231
 20
168.4949745122
 10
392.5274988888
 20
169.4654722396
 10
392.7785536526
 20
173.3429331961
 10
393.3634465812
 20
177.2023637477
 10
394.2799872039
 20
181.0294140759
 10
395.5247855066
 20
184.8098237696
 10
397.0931923269
 20
188.5295410338
 10
398.9793887614
 20
192.1747226897
 10
401.1763489126
 20
195.7318235818
 10
403.6758994935
 20
199.1875965777
 10
406.4687421797
 20
202.5291968766
 10
409.5444908617
 20
205.7441820088
 10
412.8917014478
 20
208.8206012431
 10
416.4979314683
 20
211.7470104876
 10
420.3497475265
 20
214.5125169936
 10
424.4328333317
 20
217.1068389598
 10
428.7319934247
 20
219.5203055325
 10
433.2312388597
 20
221.743961114
 10
437.9138319074
 20
223.7695355597
 10
442.7623531102
 20
225.589473981
 10
447.7587608872
 20
227.1970410529
 10
452.8844734906
 20
228.586186904
 10
458.1204211591
 20
229.7518451396
 10
463.4471262126
 20
230.6895752135
 10
468.8447710378
 20
231.3959498587
 10
474.2932781829
 20
231.8683464709
 10
479.7723790417
 20
232.1049769107
 10
485.261689757
 20
232.1049769107
 10
490.7407906158
 20
231.8683464709
 10
496.1892977609
 20
231.3959498587
 10
501.5869425861
 20
230.6895752135
 10
506.9136476396
 20
229.7518451396
 10
512.1495953081
 20
228.586186904
 10
517.2753079115
 20
227.1970410529
 10
522.2717156886
 20
225.589473981
 10
527.1202368914
 20
223.7695355597
 10
531.802829939
 20
221.743961114
 10
536.302075374
 20
219.5203055325
 10
540.601235467
 20
217.1068389598
 10
544.6843212722
 20
214.5125169936
 10
548.5361373304
 20
211.7470104876
 10
552.1423673509
 20
208.8206012431
 10
555.489577937
 20
205.7441820088
 10
558.565326619
 20
202.5291968766
 10
561.3581693052
 20
199.1875965777
 10
563.8577198861
 20
195.7318235818
 10
566.0546800373
 20
192.1747226897
 10
567.9408764718
 20
188.5295410338
 10
569.5092832921
 20
184.8098237696
 10
570.7540815948
 20
181.0294140759
 10
571.6706222175
 20
177.2023637477
 10
572.2555151461
 20
173.3429331961
 10
572.5065699099
 20
169.4654722396
 10
572.5170379756
 20
168.4949745122
  0
LINE
  5
BD
330
1F
100
AcDbEntity
  8
0
  6
Continuous
 62
     7
370
    25
100
AcDbLine
 10
241.0879802668
 20
-165.0987164012
 30
0.0
 11
145.4483677411
 21
-165.0987164012
 31
0.0
  0
LINE
  5
BE
330
1F
100
AcDbEntity
  8
0
  6
Continuous
 62
     7
370
    25
100
AcDbLine
 10
145.4483677411
 20
-345.0987235538
 30
0.0
 11
241.0879802668
 21
-345.0987235538
 31
0.0
  0
LINE
  5
BF
330
1F
100
AcDbEntity
  8
0
  6
Continuous
 62
     7
370
    25
100
AcDbLine
 10
119.0879788959
 20
-345.0987235538
 30
0.0
 11
145.4483677411
 21
-345.0987235538
 31
0.0
  0
LINE
  5
C0
330
1F
100
AcDbEntity
  8
0
  6
Continuous
 62
     7
370
    25
100
AcDbLine
 10
145.4483677411
 20
-165.0987164012
 30
0.0
 11
119.0879788959
 21
-165.0987164012
 31
0.0
  0
LWPOLYLINE
  5
C1
330
1F
100
AcDbEntity
  8
0
  6
Continuous
 62
     7
370
    25
100
AcDbPolyline
 90
      104
 70
   128
 43
0.0
 10
241.0879802668
 20
-345.0987235538
 10
244.9676987493
 20
-344.9313164583
 10
248.8330003583
 20
-344.4297284714
 10
252.6694682204
 20
-343.5958296886
 10
256.4628717267
 20
-342.4327121011
 10
260.1990696752
 20
-340.944704496
 10
263.8641741836
 20
-339.1373426548
 10
267.4445506894
 20
-337.0173544518
 10
270.9268775546
 20
-334.5926226011
 10
274.2982056701
 20
-331.872169756
 10
277.5459733569
 20
-328.8661138049
 10
280.6581404769
 20
-325.5856380693
 10
283.6230841243
 20
-322.0429466001
 10
286.4298072421
 20
-318.2512194744
 10
289.0678492152
 20
-314.2245569161
 10
291.5274050796
 20
-309.977945768
 10
293.799310621
 20
-305.5271812609
 10
295.8751466834
 20
-300.888818585
 10
297.7471646631
 20
-296.0801132849
 10
299.4084057176
 20
-291.1189542047
 10
300.8526858651
 20
-286.0237964324
 10
302.0746406877
 20
-280.8135961077
 10
303.069725331
 20
-275.5077359161
 10
303.8342294061
 20
-270.1259515143
 10
304.365306791
 20
-264.6882654062
 10
304.6609905326
 20
-259.214904987
 10
304.720192846
 20
-253.7262326932
 10
304.5426604116
 20
-248.2426659099
 10
304.1290935838
 20
-242.7846043265
 10
303.48099738
 20
-237.372352638
 10
302.6007857883
 20
-232.0260432443
 10
301.4917519653
 20
-226.7655664018
 10
300.1580086314
 20
-221.6104910604
 10
298.6045327747
 20
-216.5799931518
 10
296.8370762431
 20
-211.6927885345
 10
294.8622402513
 20
-206.9670528999
 10
292.6873561704
 20
-202.4203733436
 10
290.320515331
 20
-198.0696626833
 10
287.7705392205
 20
-193.931099855
 10
285.0468900764
 20
-190.020088934
 10
282.1597155893
 20
-186.3511697284
 10
279.1197445953
 20
-182.9379991523
 10
275.9383019769
 20
-179.7932729951
 10
272.627204355
 20
-176.9286886684
 10
269.198789891
 20
-174.3548930517
 10
265.6657841766
 20
-172.0814750424
 10
262.0413598382
 20
-170.1168910495
 10
258.3389875257
 20
-168.4684426418
 10
254.5724359119
 20
-167.1422616473
 10
250.7557269895
 20
-166.1432878009
 10
246.903046664
 20
-165.4752314917
 10
243.0287447536
 20
-165.1405812136
 10
239.14721578
 20
-165.1405812136
 10
235.272906419
 20
-165.4752314917
 10
231.4202260935
 20
-166.1432878009
 10
227.6035171711
 20
-167.1422616473
 10
223.8369655573
 20
-168.4684426418
 10
220.1345932448
 20
-170.1168910495
 10
216.5101689064
 20
-172.0814750424
 10
212.9771706426
 20
-174.3548930517
 10
209.548748728
 20
-176.9286886684
 10
206.2376585567
 20
-179.7932729951
 10
203.0562084877
 20
-182.9379991523
 10
200.0162449443
 20
-186.3511697284
 10
197.1290704572
 20
-190.020088934
 10
194.405421313
 20
-193.931099855
 10
191.855437752
 20
-198.0696626833
 10
189.4885969126
 20
-202.4203733436
 10
187.3137128317
 20
-206.9670528999
 10
185.3388768399
 20
-211.6927885345
 10
183.5714277589
 20
-216.5799931518
 10
182.0179444515
 20
-221.6104910604
 10
180.6842011177
 20
-226.7655664018
 10
179.5751672947
 20
-232.0260432443
 10
178.6949668789
 20
-237.372352638
 10
178.0468706751
 20
-242.7846043265
 10
177.6332926714
 20
-248.2426659099
 10
177.4557676875
 20
-253.7262326932
 10
177.5149625504
 20
-259.214904987
 10
177.8106500172
 20
-264.6882654062
 10
178.3417348528
 20
-270.1259515143
 10
179.1062389278
 20
-275.5077359161
 10
180.1013198459
 20
-280.8135961077
 10
181.3232746684
 20
-286.0237964324
 10
182.7675622666
 20
-291.1189542047
 10
184.4287958705
 20
-296.0801132849
 10
186.3008138501
 20
-300.888818585
 10
188.376642462
 20
-305.5271812609
 10
190.648555454
 20
-309.977945768
 10
193.1081113183
 20
-314.2245569161
 10
195.7461532914
 20
-318.2512194744
 10
198.5528764093
 20
-322.0429466001
 10
201.5178275072
 20
-325.5856380693
 10
204.6299797261
 20
-328.8661138049
 10
207.8777623141
 20
-331.872169756
 10
211.2490829789
 20
-334.5926226011
 10
214.7314098441
 20
-337.0173544518
 10
218.31178635
 20
-339.1373426548
 10
221.9768908584
 20
-340.944704496
 10
225.7130888068
 20
-342.4327121011
 10
229.5064848625
 20
-343.5958296886
 10
233.3429676258
 20
-344.4297284714
 10
237.2082543337
 20
-344.9313164583
 10
241.0879802668
 20
-345.0987235538
  0
LWPOLYLINE
  5
C2
330
1F
100
AcDbEntity
  8
0
  6
Continuous
 62
     7
370
    25
100
AcDbPolyline
 90
       98
 70
   128
 43
0.0
 10
241.0879802668
 20
-334.3987212411
 10
237.4583479726
 20
-334.2324168316
 10
233.8439372146
 20
-333.7341965071
 10
230.2599173748
 20
-332.9061464301
 10
226.7213088238
 20
-331.7517534724
 10
223.2429605686
 20
-330.2758456102
 10
219.8394608462
 20
-328.4846217266
 10
216.5250849688
 20
-326.3855920068
 10
213.3137282693
 20
-323.987563037
 10
210.2188762986
 20
-321.3005856505
 10
207.253493067
 20
-318.3359325758
 10
204.4300284946
 20
-315.1060462824
 10
201.7603141033
 20
-311.6244644753
 10
199.2555630171
 20
-307.9057977429
 10
196.9262656533
 20
-303.9656364254
 10
194.7821971738
 20
-299.8205133608
 10
192.8323504293
 20
-295.4878070286
 10
191.0849061572
 20
-290.9857005707
 10
189.5471882784
 20
-286.3330681703
 10
188.2256564462
 20
-281.549428486
 10
187.125846442
 20
-276.6548440686
 10
186.2523701751
 20
-271.6698468557
 10
185.6088933313
 20
-266.6153459704
 10
185.1981204712
 20
-261.5125387802
 10
185.0217652285
 20
-256.3828303373
 10
185.0805726611
 20
-251.2477358232
 10
185.3742894494
 20
-246.1287937022
 10
185.9016936981
 20
-241.047474452
 10
186.6605651343
 20
-236.0250902257
 10
187.6477298105
 20
-231.0827084712
 10
188.8590303027
 20
-226.2410585663
 10
190.2894076669
 20
-221.5204470686
 10
191.9328492844
 20
-216.9406757585
 10
193.7824633682
 20
-212.5209503702
 10
195.8304938638
 20
-208.2798116735
 10
198.0683502519
 20
-204.2350479296
 10
200.4866448009
 20
-200.4036241106
 10
203.0752372706
 20
-196.8016111187
 10
205.8232647145
 20
-193.4441150061
 10
208.7192085349
 20
-190.3452248207
 10
211.750916835
 20
-187.5179231993
 10
214.9056789243
 20
-184.9740863672
 10
218.170255121
 20
-182.7243761054
 10
221.5309512579
 20
-180.7782248488
 10
224.9736857378
 20
-179.1438058845
 10
228.4840044343
 20
-177.8279662958
 10
232.0471850002
 20
-176.8362269631
 10
235.6482890212
 20
-176.1727453104
 10
239.2722141707
 20
-175.8403078548
 10
242.9037463629
 20
-175.8403078548
 10
246.5276715123
 20
-176.1727453104
 10
250.1287755334
 20
-176.8362269631
 10
253.6919560992
 20
-177.8279662958
 10
257.2022822463
 20
-179.1438058845
 10
260.6450018251
 20
-180.7782248488
 10
264.0057054126
 20
-182.7243761054
 10
267.2702816093
 20
-184.9740863672
 10
270.4250362479
 20
-187.5179231993
 10
273.4567519986
 20
-190.3452248207
 10
276.3526883685
 20
-193.4441150061
 10
279.1007158124
 20
-196.8016111187
 10
281.6893157327
 20
-200.4036241106
 10
284.1076102817
 20
-204.2350479296
 10
286.3454666698
 20
-208.2798116735
 10
288.3934971654
 20
-212.5209503702
 10
290.2431037986
 20
-216.9406757585
 10
291.8865528667
 20
-221.5204470686
 10
293.3169302308
 20
-226.2410585663
 10
294.5282307231
 20
-231.0827084712
 10
295.5153879487
 20
-236.0250902257
 10
296.2742593848
 20
-241.047474452
 10
296.8016710841
 20
-246.1287937022
 10
297.0953878724
 20
-251.2477358232
 10
297.1541878545
 20
-256.3828303373
 10
296.9778326118
 20
-261.5125387802
 10
296.5670672023
 20
-266.6153459704
 10
295.9235903585
 20
-271.6698468557
 10
295.0501140916
 20
-276.6548440686
 10
293.9503040874
 20
-281.549428486
 10
292.6287648046
 20
-286.3330681703
 10
291.0910543763
 20
-290.9857005707
 10
289.3436101043
 20
-295.4878070286
 10
287.3937633598
 20
-299.8205133608
 10
285.2496948802
 20
-303.9656364254
 10
282.920404967
 20
-307.9057977429
 10
280.4156389796
 20
-311.6244644753
 10
277.745932039
 20
-315.1060462824
 10
274.922460016
 20
-318.3359325758
 10
271.9570842349
 20
-321.3005856505
 10
268.8622322643
 20
-323.987563037
 10
265.6508681142
 20
-326.3855920068
 10
262.3364922368
 20
-328.4846217266
 10
258.9329925143
 20
-330.2758456102
 10
255.4546442592
 20
-331.7517534724
 10
251.9160357082
 20
-332.9061464301
 10
248.332023319
 20
-333.7341965071
 10
244.717612561
 20
-334.2324168316
 10
241.0879802668
 20
-334.3987212411
  0
ARC
  5
C3
330
1F
100
AcDbEntity
  8
0
  6
Continuous
 62
     7
370
    25
100
AcDbCircle
 10
119.0879788959
 20
-255.0987199775
 30
0.0
 40
90.00000000000006
100
AcDbArc
 50
90.0
 51
270.0
  0
ARC
  5
C4
330
1F
100
AcDbEntity
  8
0
  6
Continuous
 62
     7
370
    25
100
AcDbCircle
 10
119.0879788959
 20
-255.0987199775
 30
0.0
 40
79.30000000000001
100
AcDbArc
 50
334.317562285
 51
25.682437715
  0
LWPOLYLINE
  5
C5
330
1F
100
AcDbEntity
  8
0
  6
Continuous
 62
     1
370
    25
100
AcDbPolyline
 90
       54
 70
   128
 43
0.0
 10
145.4483677411
 20
-165.0987164012
 10
144.477873739
 20
-165.1091844669
 10
140.6004071945
 20
-165.3602392307
 10
136.7409747803
 20
-165.9451321593
 10
132.9139337653
 20
-166.861672782
 10
129.1335222089
 20
-168.1064710847
 10
125.4138030821
 20
-169.674877905
 10
121.7686139756
 20
-171.5610743395
 10
118.2115149462
 20
-173.7580344907
 10
114.7557386906
 20
-176.2575850717
 10
111.4141411857
 20
-179.0504277578
 10
108.1991537252
 20
-182.1261764399
 10
105.1227354222
 20
-185.4733870259
 10
102.196329903
 20
-189.0796170465
 10
99.4308271223
 20
-192.9314331046
 10
96.8365107441
 20
-197.0145189098
 10
94.4230348581
 20
-201.3136790029
 10
92.1993755513
 20
-205.8129244379
 10
90.1738066935
 20
-210.4955174855
 10
88.3538626843
 20
-215.3440386883
 10
86.7463123762
 20
-220.3404464654
 10
85.3571404481
 20
-225.4661590687
 10
84.1915120148
 20
-230.7021067372
 10
83.2537595892
 20
-236.0288117907
 10
82.5473774934
 20
-241.426456616
 10
82.0749920571
 20
-246.874963761
 10
81.838357892
 20
-252.3540646198
 10
81.838357892
 20
-257.8433753352
 10
82.0749920571
 20
-263.3224761939
 10
82.5473774934
 20
-268.770983339
 10
83.2537595892
 20
-274.1686281643
 10
84.1915120148
 20
-279.4953332177
 10
85.3571404481
 20
-284.7312808863
 10
86.7463123762
 20
-289.8569934896
 10
88.3538626843
 20
-294.8534012667
 10
90.1738066935
 20
-299.7019224695
 10
92.1993755513
 20
-304.3845155171
 10
94.4230348581
 20
-308.8837609521
 10
96.8365107441
 20
-313.1829210452
 10
99.4308271223
 20
-317.2660068503
 10
102.196329903
 20
-321.1178229085
 10
105.1227354222
 20
-324.724052929
 10
108.1991537252
 20
-328.0712635151
 10
111.4141411857
 20
-331.1470121971
 10
114.7557386906
 20
-333.9398548833
 10
118.2115149462
 20
-336.4394054643
 10
121.7686139756
 20
-338.6363656155
 10
125.4138030821
 20
-340.52256205
 10
129.1335222089
 20
-342.0909688703
 10
132.9139337653
 20
-343.3357671729
 10
136.7409747803
 20
-344.2523077956
 10
140.6004071945
 20
-344.8372007242
 10
144.477873739
 20
-345.088255488
 10
145.4483677411
 20
-345.0987235538
  0
ARC
  5
C6
330
1F
100
AcDbEntity
  8
0
  6
Continuous
 62
     1
370
    25
100
AcDbCircle
 10
94.4770244005
 20
-255.0987199775
 30
0.0
 40
107.1200886378154
100
AcDbArc
 50
337.2567754413
 51
22.7432245587
  0
INSERT
  5
D2
330
1F
100
AcDbEntity
  8
FORMAT
 62
     7
100
AcDbBlockReference
  2
SW_CENTERMARKSYMBOL_1
 10
119.0879788959
 20
-255.0987199775
 30
0.0
  0
LINE
  5
D3
330
1F
100
AcDbEntity
  8
0
  6
Continuous
 62
     7
370
    25
100
AcDbLine
 10
395.7261836109
 20
-280.5593747241
 30
0.0
 11
395.7261836109
 21
-387.2982259839
 31
0.0
  0
LINE
  5
D4
330
1F
100
AcDbEntity
  8
0
  6
Continuous
 62
     7
370
    25
100
AcDbLine
 10
575.7261855879
 20
-387.2982259839
 30
0.0
 11
575.7261855879
 21
-280.5593747241
 31
0.0
  0
LINE
  5
D5
330
1F
100
AcDbEntity
  8
0
  6
Continuous
 62
     7
370
    25
100
AcDbLine
 10
494.0509247502
 20
-55.7004886407
 30
0.0
 11
426.4235101345
 21
-172.8346140005
 31
0.0
  0
LINE
  5
D6
330
1F
100
AcDbEntity
  8
0
  6
Continuous
 62
     7
370
    25
100
AcDbLine
 10
582.3080797958
 20
-262.8346201259
 30
0.0
 11
649.9354957286
 21
-145.7004940058
 31
0.0
  0
SPLINE
  5
D7
330
1F
100
AcDbEntity
  8
0
  6
Continuous
 62
     7
370
    25
100
AcDbSpline
210
0.0
220
0.0
230
1.0
 70
     8
 71
     3
 72
    23
 73
    19
 74
     0
 42
0.000000001
 43
0.00000001
 40
0.0
 40
0.0
 40
0.0
 40
0.0
 40
0.0370708735499626
 40
0.1008157069807946
 40
0.1646402868366979
 40
0.2285855808807052
 40
0.2926949247063385
 40
0.3570087582140616
 40
0.4215630997560366
 40
0.4863866718687844
 40
0.5514991119122508
 40
0.6169067133102638
 40
0.6825994728429624
 40
0.7485471030152452
 40
0.8146961483160656
 40
0.8809595957907403
 40
0.9472040884070557
 40
1.0
 40
1.0
 40
1.0
 40
1.0
 10
426.4235101344613
 20
-172.8346140004953
 30
0.0
 10
425.7142065076658
 20
-174.078163175186
 30
0.0
 10
423.7852272376453
 20
-177.4600443451254
 30
0.0
 10
420.7942388033991
 20
-183.0698939944068
 30
0.0
 10
417.5067089334643
 20
-189.6839663798899
 30
0.0
 10
414.4241393202787
 20
-196.3968587161442
 30
0.0
 10
411.5481417784167
 20
-203.2011028287889
 30
0.0
 10
408.8853084537508
 20
-210.0919869929106
 30
0.0
 10
406.4417879994822
 20
-217.0638575779915
 30
0.0
 10
404.2246884027201
 20
-224.1107631574118
 30
0.0
 10
402.2418710229465
 20
-231.2259120461596
 30
0.0
 10
400.5018998144545
 20
-238.401344636922
 30
0.0
 10
399.0138316079773
 20
-245.6275265669802
 30
0.0
 10
397.7877007248837
 20
-252.8928531198152
 30
0.0
 10
396.8314574136799
 20
-260.183230400035
 30
0.0
 10
396.1610699574148
 20
-267.4800806647515
 30
0.0
 10
395.7871163951865
 20
-274.2770739043413
 30
0.0
 10
395.7449049264534
 20
-278.6291669148452
 30
0.0
 10
395.7261836108947
 20
-280.5593747241443
 30
0.0
  0
SPLINE
  5
D8
330
1F
100
AcDbEntity
  8
0
  6
Continuous
 62
     7
370
    25
100
AcDbSpline
210
0.0
220
0.0
230
1.0
 70
     8
 71
     3
 72
    21
 73
    17
 74
     0
 42
0.000000001
 43
0.00000001
 40
0.0
 40
0.0
 40
0.0
 40
0.0
 40
0.0594253897341782
 40
0.1399301030193645
 40
0.2181005001005438
 40
0.2946150906574658
 40
0.3700770727408377
 40
0.4450038965291017
 40
0.5198164786963451
 40
0.5948353873083744
 40
0.6702149489878795
 40
0.7460901147226578
 40
0.8225187213916504
 40
0.8994795313517662
 40
0.9768896182471333
 40
1.0
 40
1.0
 40
1.0
 40
1.0
 10
575.7265148602017
 20
-280.6183121780276
 30
0.0
 10
575.7264176075292
 20
-280.6166821221514
 30
0.0
 10
575.7261886047993
 20
-280.6128437983691
 30
0.0
 10
575.7500937354556
 20
-280.286337145044
 30
0.0
 10
575.8223580454023
 20
-279.6948838924787
 30
0.0
 10
575.9608343590246
 20
-278.844605694291
 30
0.0
 10
576.181408375725
 20
-277.7630874769737
 30
0.0
 10
576.4983308391091
 20
-276.4651344102211
 30
0.0
 10
576.9230741384763
 20
-274.9717192976368
 30
0.0
 10
577.464180447062
 20
-273.3062866653818
 30
0.0
 10
578.1264697410578
 20
-271.4957657858455
 30
0.0
 10
578.9114543297497
 20
-269.5705574376468
 30
0.0
 10
579.8144563624492
 20
-267.5617784043205
 30
0.0
 10
580.8347740938445
 20
-265.5082045093222
 30
0.0
 10
581.6765273583532
 20
-263.9188919299372
 30
0.0
 10
582.1960203121529
 20
-263.0413564350926
 30
0.0
 10
582.3154554942773
 20
-262.8396046868141
 30
0.0
  0
LWPOLYLINE
  5
D9
330
1F
100
AcDbEntity
  8
0
  6
Continuous
 62
     7
370
    25
100
AcDbPolyline
 90
      104
 70
   128
 43
0.0
 10
422.0865717638
 20
-350.559859492
 10
426.0846698873
 20
-348.3884790843
 10
430.3046369239
 20
-346.36184447
 10
434.7307711969
 20
-344.4874932728
 10
439.3466137034
 20
-342.7724027464
 10
444.1349935538
 20
-341.2229513772
 10
449.0780958023
 20
-339.8449040577
 10
454.1575286177
 20
-338.6433854749
 10
459.3544009923
 20
-337.6228656636
 10
464.6493780594
 20
-336.7871402376
 10
470.0227614356
 20
-336.1393205053
 10
475.4545629779
 20
-335.6818152217
 10
480.9245732727
 20
-335.4163275467
 10
486.4124459287
 20
-335.3438428801
 10
491.8977713345
 20
-335.4646319027
 10
497.3601319762
 20
-335.7782460143
 10
502.7792183412
 20
-336.2835142924
 10
508.1348631625
 20
-336.978563261
 10
513.4071467858
 20
-337.860804725
 10
518.5764551215
 20
-338.92695706
 10
523.62355867
 20
-340.1730543362
 10
528.529679693
 20
-341.5944607648
 10
533.2765712395
 20
-343.185885905
 10
537.8465691701
 20
-344.9414146972
 10
542.2226810608
 20
-346.8545101241
 10
546.3886178132
 20
-348.9180618729
 10
550.3288904605
 20
-351.124387475
 10
554.0288351922
 20
-353.4652832497
 10
557.4746857938
 20
-355.9320417912
 10
560.6536335747
 20
-358.5154804816
 10
563.5538398803
 20
-361.2059973762
 10
566.1645276296
 20
-363.9935753847
 10
568.4759740716
 20
-366.8678510824
 10
570.4795878346
 20
-369.8181287764
 10
572.1679141948
 20
-372.8334322083
 10
573.5346759059
 20
-375.9025463735
 10
574.5747811018
 20
-379.0140524963
 10
575.2843628092
 20
-382.1563751712
 10
575.6607789474
 20
-385.3178310242
 10
575.7026360363
 20
-388.4866484825
 10
575.4097760253
 20
-391.6510483693
 10
574.7832868298
 20
-394.799253029
 10
573.8254970632
 20
-397.9195532362
 10
572.5399707684
 20
-401.0003416511
 10
570.9314968811
 20
-404.0301614811
 10
569.0060523512
 20
-406.9977338528
 10
566.7707968746
 20
-409.8920216811
 10
564.2340518197
 20
-412.7022600819
 10
561.4052541293
 20
-415.4179951501
 10
558.294924052
 20
-418.0291208361
 10
554.9146348488
 20
-420.5259268463
 10
551.2769589577
 20
-422.8991236405
 10
547.3954301269
 20
-425.1398825386
 10
543.2844872738
 20
-427.2398681311
 10
538.9594237778
 20
-429.1912675514
 10
534.4363313383
 20
-430.9868228856
 10
529.7320304994
 20
-432.6198530322
 10
524.8640273495
 20
-434.0842847811
 10
519.8504305456
 20
-435.3746703011
 10
514.7098874341
 20
-436.4862057685
 10
509.4615168789
 20
-437.4147579789
 10
504.1248565787
 20
-438.1568765124
 10
498.7197524307
 20
-438.7097967754
 10
493.2663111158
 20
-439.0714612897
 10
487.7848158048
 20
-439.2405257755
 10
482.2956682067
 20
-439.2163621924
 10
476.8192726644
 20
-438.9990617812
 10
471.3760203501
 20
-438.5894289808
 10
465.9861496536
 20
-437.9889890319
 10
460.6697119381
 20
-437.1999742907
 10
455.4464872465
 20
-436.225324229
 10
450.3359026417
 20
-435.0686626239
 10
445.3569716207
 20
-433.7342929958
 10
440.5282216748
 20
-432.227175038
 10
435.8676047272
 20
-430.5529215753
 10
431.3924727672
 20
-428.717754084
 10
427.1194586534
 20
-426.728506874
 10
423.0644688699
 20
-424.592574245
 10
419.24258672
 20
-422.3179032634
 10
415.6680229357
 20
-419.9129591669
 10
412.3540853845
 20
-417.3866835457
 10
409.3130908242
 20
-414.7484798961
 10
406.5563629277
 20
-412.0081577357
 10
404.094147989
 20
-409.1759143551
 10
401.9356103134
 20
-406.262283495
 10
400.0887801927
 20
-403.2781053128
 10
398.5605275631
 20
-400.2344807625
 10
397.356536981
 20
-397.1427328168
 10
396.4812918172
 20
-394.0143608476
 10
395.9380373791
 20
-390.8610071701
 10
395.7288019839
 20
-387.6943962165
 10
395.8543627139
 20
-384.5263147668
 10
396.3142506856
 20
-381.3685450386
 10
397.1067589516
 20
-378.2328327537
 10
398.2289372325
 20
-375.1308445583
 10
399.6766129902
 20
-372.0741193617
 10
401.4443966965
 20
-369.0740287986
 10
403.5257134431
 20
-366.1417346499
 10
405.9128200636
 20
-363.2881424623
 10
408.5968393781
 20
-360.5238696138
 10
411.5677852176
 20
-357.8592004539
 10
414.8146085224
 20
-355.304047526
 10
418.3252230251
 20
-352.8679124104
 10
422.0865717638
 20
-350.559859492
  0
LWPOLYLINE
  5
DA
330
1F
100
AcDbEntity
  8
0
  6
Continuous
 62
     7
370
    25
100
AcDbPolyline
 90
       98
 70
   128
 43
0.0
 10
429.6526159578
 20
-354.9276438343
 10
426.140578999
 20
-357.090871884
 10
422.8784662663
 20
-359.3808005944
 10
419.8799623148
 20
-361.7878268801
 10
417.1576334906
 20
-364.3018496334
 10
414.7229101509
 20
-366.9123286507
 10
412.5859964428
 20
-369.6083123849
 10
410.7558577912
 20
-372.3784938301
 10
409.2401701909
 20
-375.2112519605
 10
408.0452938647
 20
-378.0947095156
 10
407.1762390193
 20
-381.016771018
 10
406.6366460887
 20
-383.9651767565
 10
406.4287857344
 20
-386.9275636142
 10
406.5535219667
 20
-389.8915046055
 10
407.010341121
 20
-392.8445681826
 10
407.7973176131
 20
-395.7743684184
 10
408.9111587205
 20
-398.6686182297
 10
410.3471835088
 20
-401.5151749977
 10
412.0993794666
 20
-404.3021006351
 10
414.1603880177
 20
-407.0177079664
 10
416.5215703751
 20
-409.6506048278
 10
419.1730233465
 20
-412.1897457702
 10
422.1036181884
 20
-414.6244849028
 10
425.3010687651
 20
-416.9446091581
 10
428.7519674396
 20
-419.1403833417
 10
432.441832983
 20
-421.2026021205
 10
436.3551930566
 20
-423.1226133087
 10
440.4756276762
 20
-424.8923672889
 10
444.7858647012
 20
-426.5044356412
 10
449.2678145725
 20
-427.9520616105
 10
453.9026890153
 20
-429.2291678045
 10
458.6710398931
 20
-430.3304029554
 10
463.5528645751
 20
-431.2511480018
 10
468.527696815
 20
-431.987538139
 10
473.5746660204
 20
-432.5364848688
 10
478.6726039365
 20
-432.8956858838
 10
483.8001236719
 20
-433.0636372328
 10
488.9357250654
 20
-433.0396302796
 10
494.0578631751
 20
-432.823769951
 10
499.1450510106
 20
-432.4169580094
 10
504.1759622667
 20
-431.820906739
 10
509.1294866406
 20
-431.0381070113
 10
513.98484837
 20
-430.0718480542
 10
518.721685259
 20
-428.9261839967
 10
523.3201237512
 20
-427.605914861
 10
527.7608816635
 20
-426.1165819999
 10
532.025331406
 20
-424.4644316008
 10
536.0955878976
 20
-422.6563943465
 10
539.9545770548
 20
-420.7000519604
 10
543.5861135001
 20
-418.6036105946
 10
546.974965099
 20
-416.375863573
 10
550.1069168389
 20
-414.0261545154
 10
552.9688353667
 20
-411.5643400802
 10
555.5487150869
 20
-409.0007451051
 10
557.8357361131
 20
-406.3461230688
 10
559.8202995005
 20
-403.6116053386
 10
561.4940904663
 20
-400.8086646745
 10
562.8500862918
 20
-397.9490559219
 10
563.88258925
 20
-395.0447726732
 10
564.5872845571
 20
-392.1080016467
 10
564.9612061287
 20
-389.1510542564
 10
565.0027918973
 20
-386.1863346777
 10
564.7118601045
 20
-383.226280541
 10
564.0896382774
 20
-380.283303625
 10
563.1387316181
 20
-377.3697503195
 10
561.8631282719
 20
-374.4978407977
 10
560.2681782546
 20
-371.6796233962
 10
558.3605763296
 20
-368.9269130276
 10
556.1483238127
 20
-366.2512569647
 10
553.6406903763
 20
-363.6638823778
 10
550.848203513
 20
-361.1756355071
 10
547.7825675343
 20
-358.7969592327
 10
544.4566502353
 20
-356.5378245493
 10
540.8843954727
 20
-354.4077105119
 10
537.0807908964
 20
-352.4155491114
 10
533.0617823384
 20
-350.5697001835
 10
528.8442334773
 20
-348.8779037922
 10
524.4458357819
 20
-347.3472525726
 10
519.8850304741
 20
-345.9841710116
 10
515.1809509061
 20
-344.7943761006
 10
510.3533310225
 20
-343.782854905
 10
505.4224157987
 20
-342.9538554404
 10
500.4088848493
 20
-342.3108486559
 10
495.3337720859
 20
-341.8565367973
 10
490.2183616669
 20
-341.5928207129
 10
485.0841089725
 20
-341.5208120187
 10
479.952548408
 20
-341.6408072471
 10
474.8452064763
 20
-341.9523076155
 10
469.7834990449
 20
-342.4540022989
 10
464.788662857
 20
-343.1437897194
 10
459.8816501647
 20
-344.0187775465
 10
455.0830352154
 20
-345.0752941014
 10
450.4129483978
 20
-346.3089081269
 10
445.8909761426
 20
-347.7144439933
 10
441.5360891414
 20
-349.2860109717
 10
437.3665455407
 20
-351.0170104576
 10
433.3998428681
 20
-352.9001880536
 10
429.6526159578
 20
-354.9276438343
  0
LWPOLYLINE
  5
DB
330
1F
100
AcDbEntity
  8
0
  6
Continuous
 62
     7
370
    25
100
AcDbPolyline
 90
      104
 70
   128
 43
0.0
 10
508.353600038
 20
-63.9621354781
 10
511.2153499784
 20
-65.6147094764
 10
514.3032072244
 20
-67.3977801121
 10
517.6056551496
 20
-69.3047639861
 10
521.1104448262
 20
-71.3285272173
 10
524.8045159994
 20
-73.4615649069
 10
528.674134065
 20
-75.6959463936
 10
532.7049006059
 20
-78.0233213367
 10
536.8818218808
 20
-80.4350809354
 10
541.1893615075
 20
-82.9222180067
 10
545.6114826102
 20
-85.4754851597
 10
550.1317637231
 20
-88.0854008861
 10
554.7333566436
 20
-90.7422373833
 10
559.399165556
 20
-93.4361239877
 10
564.1118233248
 20
-96.1570334773
 10
568.8537994951
 20
-98.8948444346
 10
573.6074450741
 20
-101.6393670969
 10
578.3551005322
 20
-104.3804057177
 10
583.0790852665
 20
-107.1077524738
 10
587.7618293095
 20
-109.8112635155
 10
592.3859102078
 20
-112.4808802538
 10
596.93413073
 20
-115.1066742266
 10
601.3895715507
 20
-117.6788775121
 10
605.7356538118
 20
-120.1879188469
 10
609.956206953
 20
-122.6244627876
 10
614.0355372001
 20
-124.97944925
 10
617.958476956
 20
-127.2441220225
 10
621.7104098253
 20
-129.4100432059
 10
625.2774062747
 20
-131.4691715448
 10
628.6461729246
 20
-133.4138331343
 10
631.8041809657
 20
-135.236795567
 10
634.7396944765
 20
-136.9312842766
 10
637.4417842523
 20
-138.4909905133
 10
639.9004101235
 20
-139.910118871
 10
642.1064051505
 20
-141.1833781514
 10
644.0515849422
 20
-142.3060444821
 10
645.7286976065
 20
-143.2739324077
 10
647.1315054098
 20
-144.0834420351
 10
648.2548058505
 20
-144.7315711945
 10
649.0943974146
 20
-145.2158956592
 10
649.6471744063
 20
-145.5346238957
 10
649.9110663615
 20
-145.6865620745
 10
649.8851039028
 20
-145.6711399211
 10
649.5693713239
 20
-145.4884563349
 10
648.9650645416
 20
-145.1391303369
 10
648.0744015338
 20
-144.6244926968
 10
646.9007171699
 20
-143.9464703417
 10
645.4483736487
 20
-143.1075589682
 10
643.7227710352
 20
-142.1108777944
 10
641.7303314554
 20
-140.9601725978
 10
639.478462218
 20
-139.6596727395
 10
636.9755505457
 20
-138.2142584666
 10
634.2308950871
 20
-136.6292753499
 10
631.2547111846
 20
-134.9106529167
 10
628.0580676542
 20
-133.0647708031
 10
624.6528657124
 20
-131.09847092
 10
621.0517599502
 20
-129.0191091594
 10
617.2681583341
 20
-126.8343911339
 10
613.3161326429
 20
-124.5524421358
 10
609.2103763218
 20
-122.1817888848
 10
604.9661676033
 20
-119.7311983086
 10
600.5993062873
 20
-117.2098174649
 10
596.1260241788
 20
-114.6270184087
 10
591.562969283
 20
-111.9924255681
 10
586.9271109748
 20
-109.3158062361
 10
582.2356978518
 20
-106.6071618269
 10
577.5061813436
 20
-103.8765377634
 10
572.7561551253
 20
-101.1340919155
 10
568.0032918972
 20
-98.3900337695
 10
563.2652722623
 20
-95.6545590264
 10
558.5597215059
 20
-92.9378617718
 10
553.9041437409
 20
-90.2500538717
 10
549.3158560537
 20
-87.6011147826
 10
544.8119318693
 20
-85.0009075259
 10
540.4091245599
 20
-82.4591193741
 10
536.1238114688
 20
-79.9851626144
 10
531.9719353002
 20
-77.5882897639
 10
527.9689389226
 20
-75.2773795023
 10
524.129718613
 20
-73.061046565
 10
520.4685509576
 20
-70.9475478289
 10
516.9990599252
 20
-68.94471768
 10
513.7341496955
 20
-67.0600387405
 10
510.685968439
 20
-65.3004840787
 10
507.8658529994
 20
-63.6726282422
 10
505.284297942
 20
-62.1825138029
 10
502.9508982603
 20
-60.8356973687
 10
500.8743467418
 20
-59.6371902779
 10
499.062361528
 20
-58.5914228584
 10
497.5216808466
 20
-57.7023143994
 10
496.258041937
 20
-56.9731575677
 10
495.2761389047
 20
-56.406667081
 10
494.5796358913
 20
-56.0049325675
 10
494.1711117571
 20
-55.769508305
 10
494.0520890569
 20
-55.7011987781
 10
494.223015601
 20
-55.80031572
 10
494.68324865
 20
-56.0664560621
 10
495.4310812566
 20
-56.4986205742
 10
496.4637317287
 20
-57.0952442862
 10
497.7773541663
 20
-57.8540565699
 10
499.3670648035
 20
-58.7722727803
 10
501.2269525448
 20
-59.8464604193
 10
503.3501000385
 20
-61.0726364799
 10
505.7285942139
 20
-62.4462370319
 10
508.353600038
 20
-63.9621354781
  0
LWPOLYLINE
  5
DC
330
1F
100
AcDbEntity
  8
0
  6
Continuous
 62
     7
370
    25
100
AcDbPolyline
 90
       98
 70
   128
 43
0.0
 10
515.919644232
 20
-68.3299198204
 10
513.4707015992
 20
-66.9156754274
 10
511.2672222122
 20
-65.6431663883
 10
509.3184573042
 20
-64.5176866698
 10
507.6325622903
 20
-63.5439706208
 10
506.2166231096
 20
-62.7261047537
 10
505.0765719308
 20
-62.0675277398
 10
504.2171924213
 20
-61.5709786911
 10
503.6420828683
 20
-61.2385549495
 10
503.3536719839
 20
-61.071623868
 10
503.353155685
 20
-61.0709505596
 10
503.6405392399
 20
-61.2364727969
 10
504.2146161951
 20
-61.5675200139
 10
505.0729841803
 20
-62.062725091
 10
506.2120370056
 20
-62.7199589414
 10
507.6269962722
 20
-63.5365130211
 10
509.3119324452
 20
-64.5089472247
 10
511.2597727568
 20
-65.6331917831
 10
513.4623499378
 20
-66.904514553
 10
515.9104298772
 20
-68.3175917366
 10
518.5937405978
 20
-69.866475931
 10
521.5010249397
 20
-71.5446995468
 10
524.6200899514
 20
-73.3452242293
 10
527.9378592439
 20
-75.2604589126
 10
531.4404088813
 20
-77.2824265443
 10
535.1130521687
 20
-79.4026001051
 10
538.9403799877
 20
-81.6121205688
 10
542.9063464076
 20
-83.901675985
 10
546.9943114902
 20
-86.2617208643
 10
551.1871339807
 20
-88.6822985128
 10
555.4672162527
 20
-91.1533103222
 10
559.816622188
 20
-93.664370902
 10
564.2170982499
 20
-96.2049114936
 10
568.6501907041
 20
-98.7643328216
 10
573.097304888
 20
-101.3318811353
 10
577.539788187
 20
-103.8967691187
 10
581.9590064255
 20
-106.4482382452
 10
586.3364255271
 20
-108.9756180933
 10
590.6536826366
 20
-111.4682700685
 10
594.8926704142
 20
-113.9157759998
 10
599.0356160607
 20
-116.3078438376
 10
603.0651340012
 20
-118.6344475837
 10
606.9643233494
 20
-120.885834891
 10
610.7168311281
 20
-123.0525757368
 10
614.3069207577
 20
-125.1255472164
 10
617.7195300082
 20
-127.0960521712
 10
620.9403447562
 20
-128.9558739499
 10
623.9558622051
 20
-130.6971729854
 10
626.753433032
 20
-132.3126632263
 10
629.3213140712
 20
-133.7955513009
 10
631.6487473397
 20
-135.1396125714
 10
633.7259600369
 20
-136.3392398037
 10
635.5442435703
 20
-137.3893975463
 10
637.095979897
 20
-138.2856616806
 10
638.3746415238
 20
-139.0242863422
 10
639.3748810694
 20
-139.6021461391
 10
640.0924996539
 20
-140.0168517394
 10
640.5244837777
 20
-140.266649502
 10
640.6690263947
 20
-140.3504823202
 10
640.5255163755
 20
-140.2680322079
 10
640.094556947
 20
-140.0196214562
 10
639.3779656919
 20
-139.60627347
 10
638.3787324023
 20
-139.0297492783
 10
637.1010559581
 20
-138.2924593306
 10
635.5502942772
 20
-137.3974954417
 10
633.7329458771
 20
-136.3486079846
 10
631.656652508
 20
-135.1502074218
 10
629.3301056404
 20
-133.8073103147
 10
626.7630609527
 20
-132.3255476998
 10
623.9662948672
 20
-130.7111400008
 10
620.9515360616
 20
-128.9708574897
 10
617.7314371515
 20
-127.1120039448
 10
614.3194875979
 20
-125.1423663695
 10
610.730005311
 20
-123.0702101553
 10
606.9780516975
 20
-120.9042300356
 10
603.0793671237
 20
-118.6535128292
 10
599.0502884324
 20
-116.3274898203
 10
594.9077221074
 20
-113.935921274
 10
590.6690451628
 20
-111.4888392135
 10
586.3520317148
 20
-108.9965050288
 10
581.9747983228
 20
-106.4693779244
 10
577.5556986223
 20
-103.9180540828
 10
573.1132627386
 20
-101.3532316906
 10
568.6661327496
 20
-98.7856736759
 10
564.23296127
 20
-96.2261491582
 10
559.8323297916
 20
-93.6853862977
 10
555.482711805
 20
-91.1740388441
 10
551.2023410905
 20
-88.7026830874
 10
547.009177474
 20
-86.2816155838
 10
542.9208067279
 20
-83.9210387026
 10
538.9543668145
 20
-81.6308476991
 10
535.1265110074
 20
-79.4206337601
 10
531.4532867191
 20
-77.2996627027
 10
527.9500986228
 20
-75.2768536846
 10
524.6316454319
 20
-73.3606818607
 10
521.5118461431
 20
-71.559172301
 10
518.6037768161
 20
-69.8799121475
 10
515.919644232
 20
-68.3299198204
  0
LWPOLYLINE
  5
DD
330
1F
100
AcDbEntity
  8
0
  6
Continuous
 62
     1
370
    25
100
AcDbPolyline
 90
       14
 70
   128
 43
0.0
 10
549.365797435
 20
-243.8210082323
 10
553.1271461737
 20
-246.1290611507
 10
556.6377606764
 20
-248.5651962663
 10
559.8845839812
 20
-251.1203491941
 10
562.8555298207
 20
-253.7850183541
 10
565.5395491352
 20
-256.5492912025
 10
567.9266557557
 20
-259.4028833902
 10
570.0079725023
 20
-262.3351775389
 10
571.7757562087
 20
-265.335268102
 10
573.2234319664
 20
-268.3919932986
 10
574.3456102472
 20
-271.493981494
 10
575.1381185132
 20
-274.6296937789
 10
575.5980064849
 20
-277.787463507
 10
575.7261855879
 20
-280.5593747241
  0
LWPOLYLINE
  5
DE
330
1F
100
AcDbEntity
  8
0
  6
Continuous
 62
     1
370
    25
100
AcDbPolyline
 90
       40
 70
   128
 43
0.0
 10
395.7261836109
 20
-280.5593747241
 10
395.7915902514
 20
-278.5789797645
 10
396.1680063897
 20
-275.4175239114
 10
396.877588097
 20
-272.2752012366
 10
397.9176932929
 20
-269.1636951138
 10
399.284455004
 20
-266.0945809486
 10
400.9727813642
 20
-263.0792775166
 10
402.9763951272
 20
-260.1289998227
 10
405.2878415692
 20
-257.254724125
 10
407.8985293185
 20
-254.4671461165
 10
410.7987356241
 20
-251.7766292219
 10
413.977683405
 20
-249.1931905314
 10
417.4235340066
 20
-246.7264319899
 10
421.1234787383
 20
-244.3855362153
 10
425.0637513856
 20
-242.1792106131
 10
429.2296881381
 20
-240.1156588644
 10
433.6058000288
 20
-238.2025634375
 10
438.1757979593
 20
-236.4470346453
 10
442.9226895058
 20
-234.8556095051
 10
447.8288105289
 20
-233.4342030764
 10
452.8759140773
 20
-232.1881058002
 10
458.045222413
 20
-231.1219534652
 10
463.3175060363
 20
-230.2397120012
 10
468.6731508576
 20
-229.5446630327
 10
474.0922372226
 20
-229.0393947546
 10
479.5545978644
 20
-228.7257806429
 10
485.0399232702
 20
-228.6049916203
 10
490.5277959262
 20
-228.6774762869
 10
495.9978062209
 20
-228.9429639619
 10
501.4296077633
 20
-229.4004692456
 10
506.8029911395
 20
-230.0482889779
 10
512.0979682065
 20
-230.8840144039
 10
517.2948405811
 20
-231.9045342152
 10
522.3742733965
 20
-233.106052798
 10
527.317375645
 20
-234.4841001174
 10
532.1057554955
 20
-236.0335514867
 10
536.721598002
 20
-237.7486420131
 10
541.1477322749
 20
-239.6229932103
 10
545.3676993115
 20
-241.6496278246
 10
549.365797435
 20
-243.8210082323
  0
LWPOLYLINE
  5
DF
330
1F
100
AcDbEntity
  8
0
  6
Continuous
 62
     1
370
    25
100
AcDbPolyline
 90
       17
 70
   128
 43
0.0
 10
549.365797435
 20
-243.8210082323
 10
553.161817225
 20
-246.0123881035
 10
556.7763131726
 20
-248.0989451337
 10
560.1958437258
 20
-250.0729198561
 10
563.4076746097
 20
-251.9269612189
 10
566.3998716805
 20
-253.6541862795
 10
569.1613002677
 20
-255.2481493976
 10
571.6816765403
 20
-256.7029388073
 10
573.9516399466
 20
-258.0131332688
 10
575.9627400436
 20
-259.173861374
 10
577.7074957656
 20
-260.1807992622
 10
579.1794112295
 20
-261.0302101552
 10
580.3730126135
 20
-261.7189291452
 10
581.2838639618
 20
-262.2444027298
 10
581.9085803555
 20
-262.60465991
 10
582.2448279129
 20
-262.7983730203
 10
582.3080797958
 20
-262.8346201259
  0
LWPOLYLINE
  5
E0
330
1F
100
AcDbEntity
  8
0
  6
Continuous
 62
     1
370
    25
100
AcDbPolyline
 90
       37
 70
   128
 43
0.0
 10
426.4235101345
 20
-172.8346140005
 10
426.5256987907
 20
-172.8939738725
 10
426.9137270442
 20
-173.1184235268
 10
427.5898807031
 20
-173.5092146457
 10
428.5516441272
 20
-174.0649024006
 10
429.7954397736
 20
-174.7834079767
 10
431.316647294
 20
-175.6620744718
 10
433.1095966202
 20
-176.6976222261
 10
435.1676311842
 20
-177.8862157442
 10
437.4830802597
 20
-179.2234066695
 10
440.0473406213
 20
-180.704232644
 10
442.850871276
 20
-182.3231960233
 10
445.8832382446
 20
-184.0742562744
 10
449.1331685624
 20
-185.9509083052
 10
452.5885621325
 20
-187.9461756269
 10
456.2365747028
 20
-190.0526171972
 10
460.0636270856
 20
-192.262425526
 10
464.0554894512
 20
-194.5673536708
 10
468.1973076696
 20
-196.9588338712
 10
472.4736744334
 20
-199.4279912393
 10
476.8686845759
 20
-201.9655996539
 10
481.3659877538
 20
-204.5622581871
 10
485.9488464001
 20
-207.2082846425
 10
490.600220017
 20
-209.8938493934
 10
495.3028020548
 20
-212.6089419251
 10
500.0390989372
 20
-215.3434803382
 10
504.7914932816
 20
-218.0872870138
 10
509.5422992166
 20
-220.8301570533
 10
514.2738519444
 20
-223.5618795707
 10
518.9685446191
 20
-226.2722954837
 10
523.6089179085
 20
-228.9513188054
 10
528.1776981902
 20
-231.5889951944
 10
532.6579002844
 20
-234.1754943515
 10
537.0328577466
 20
-236.7012126751
 10
541.2862847711
 20
-239.1567420777
 10
545.4023703628
 20
-241.5329547774
 10
549.365797435
 20
-243.8210082323
  0
ENDSEC
  0
SECTION
  2
OBJECTS
  0
DICTIONARY
  5
C
330
0
100
AcDbDictionary
281
     1
  3
ACAD_GROUP
350
D
  3
ACAD_LAYOUT
350
1A
  3
ACAD_MLINESTYLE
350
17
  3
ACAD_PLOTSETTINGS
350
19
  3
ACAD_PLOTSTYLENAME
350
E
  3
ACAD_SCALELIST
350
47
  0
DICTIONARY
  5
D
102
{ACAD_REACTORS
330
C
102
}
330
C
100
AcDbDictionary
281
     1
  0
DICTIONARY
  5
1A
102
{ACAD_REACTORS
330
C
102
}
330
C
100
AcDbDictionary
281
     1
  3
Layout1
350
1E
  3
Layout2
350
26
  3
Model
350
22
  0
DICTIONARY
  5
17
102
{ACAD_REACTORS
330
C
102
}
330
C
100
AcDbDictionary
281
     1
  3
Standard
350
18
  0
DICTIONARY
  5
19
102
{ACAD_REACTORS
330
C
102
}
330
C
100
AcDbDictionary
281
     1
  0
ACDBDICTIONARYWDFLT
  5
E
102
{ACAD_REACTORS
330
C
102
}
330
C
100
AcDbDictionary
281
     1
  3
Normal
350
F
100
AcDbDictionaryWithDefault
340
F
  0
DICTIONARY
  5
47
102
{ACAD_REACTORS
330
C
102
}
330
C
100
AcDbDictionary
281
     1
  3
A0
350
48
  3
A1
350
49
  3
A2
350
4A
  3
A3
350
4B
  3
A4
350
4C
  3
A5
350
4D
  3
A6
350
4E
  3
A7
350
4F
  3
A8
350
50
  3
A9
350
51
  3
B0
350
52
  3
B1
350
53
  3
B2
350
54
  3
B3
350
55
  3
B4
350
56
  3
B5
350
57
  3
B6
350
58
  3
B7
350
59
  3
B8
350
5A
  3
B9
350
5B
  3
C0
350
5C
  3
C1
350
5D
  3
C2
350
5E
  3
C3
350
5F
  3
C4
350
60
  3
C5
350
61
  3
C6
350
62
  3
C7
350
63
  3
C8
350
64
  3
C9
350
65
  3
D0
350
66
  3
D1
350
67
  3
D2
350
68
  0
LAYOUT
  5
1E
102
{ACAD_REACTORS
330
1A
102
}
330
1A
100
AcDbPlotSettings
  1

  2
none_device
  4

  6

 40
0.0
 41
0.0
 42
0.0
 43
0.0
 44
0.0
 45
0.0
 46
0.0
 47
0.0
 48
0.0
 49
0.0
140
0.0
141
0.0
142
1.0
143
1.0
 70
   688
 72
     1
 73
     0
 74
     5
  7

 75
    16
147
1.0
148
0.0
149
0.0
100
AcDbLayout
  1
Layout1
 70
     1
 71
     1
 10
0.0
 20
0.0
 11
420.0
 21
297.0
 12
0.0
 22
0.0
 32
0.0
 14
1.0000000000E+20
 24
1.0000000000E+20
 34
1.0000000000E+20
 15
-1.0000000000E+20
 25
-1.0000000000E+20
 35
-1.0000000000E+20
146
0.0
 13
0.0
 23
0.0
 33
0.0
 16
1.0
 26
0.0
 36
0.0
 17
0.0
 27
1.0
 37
0.0
 76
     0
330
1B
  0
LAYOUT
  5
26
102
{ACAD_REACTORS
330
1A
102
}
330
1A
100
AcDbPlotSettings
  1

  2
none_device
  4

  6

 40
0.0
 41
0.0
 42
0.0
 43
0.0
 44
0.0
 45
0.0
 46
0.0
 47
0.0
 48
0.0
 49
0.0
140
0.0
141
0.0
142
1.0
143
1.0
 70
   688
 72
     1
 73
     0
 74
     5
  7

 75
    16
147
1.0
148
0.0
149
0.0
100
AcDbLayout
  1
Layout2
 70
     1
 71
     2
 10
0.0
 20
0.0
 11
0.0
 21
0.0
 12
0.0
 22
0.0
 32
0.0
 14
0.0
 24
0.0
 34
0.0
 15
0.0
 25
0.0
 35
0.0
146
0.0
 13
0.0
 23
0.0
 33
0.0
 16
1.0
 26
0.0
 36
0.0
 17
0.0
 27
1.0
 37
0.0
 76
     0
330
23
  0
LAYOUT
  5
22
102
{ACAD_REACTORS
330
1A
102
}
330
1A
100
AcDbPlotSettings
  1

  2
none_device
  4
Letter_(8.50_x_11.00_Inches)
  6

 40
6.35
 41
6.35
 42
6.35000508
 43
6.35000508
 44
215.9
 45
279.4
 46
0.0
 47
0.0
 48
0.0
 49
0.0
140
0.0
141
0.0
142
1.0
143
1.0
 70
  1712
 72
     1
 73
     0
 74
     0
  7

 75
     0
147
1.0
148
0.0
149
0.0
100
AcDbLayout
  1
Model
 70
     1
 71
     0
 10
0.0
 20
0.0
 11
279.4
 21
215.9
 12
0.0
 22
0.0
 32
0.0
 14
0.0
 24
0.0
 34
0.0
 15
279.4
 25
215.9
 35
0.0
146
0.0
 13
0.0
 23
0.0
 33
0.0
 16
1.0
 26
0.0
 36
0.0
 17
0.0
 27
1.0
 37
0.0
 76
     0
330
1F
331
29
  0
MLINESTYLE
  5
18
102
{ACAD_REACTORS
330
17
102
}
330
17
100
AcDbMlineStyle
  2
Standard
 70
     0
  3

 62
   256
 51
90.0
 52
90.0
 71
     2
 49
0.5
 62
   256
  6
BYLAYER
 49
-0.5
 62
   256
  6
BYLAYER
  0
ACDBPLACEHOLDER
  5
F
102
{ACAD_REACTORS
330
E
102
}
330
E
  0
SCALE
  5
48
102
{ACAD_REACTORS
330
47
102
}
330
47
100
AcDbScale
 70
     0
300
1:1
140
1.0
141
1.0
290
     1
  0
SCALE
  5
49
102
{ACAD_REACTORS
330
47
102
}
330
47
100
AcDbScale
 70
     0
300
1:2
140
1.0
141
2.0
290
     0
  0
SCALE
  5
4A
102
{ACAD_REACTORS
330
47
102
}
330
47
100
AcDbScale
 70
     0
300
1:4
140
1.0
141
4.0
290
     0
  0
SCALE
  5
4B
102
{ACAD_REACTORS
330
47
102
}
330
47
100
AcDbScale
 70
     0
300
1:5
140
1.0
141
5.0
290
     0
  0
SCALE
  5
4C
102
{ACAD_REACTORS
330
47
102
}
330
47
100
AcDbScale
 70
     0
300
1:8
140
1.0
141
8.0
290
     0
  0
SCALE
  5
4D
102
{ACAD_REACTORS
330
47
102
}
330
47
100
AcDbScale
 70
     0
300
1:10
140
1.0
141
10.0
290
     0
  0
SCALE
  5
4E
102
{ACAD_REACTORS
330
47
102
}
330
47
100
AcDbScale
 70
     0
300
1:16
140
1.0
141
16.0
290
     0
  0
SCALE
  5
4F
102
{ACAD_REACTORS
330
47
102
}
330
47
100
AcDbScale
 70
     0
300
1:20
140
1.0
141
20.0
290
     0
  0
SCALE
  5
50
102
{ACAD_REACTORS
330
47
102
}
330
47
100
AcDbScale
 70
     0
300
1:30
140
1.0
141
30.0
290
     0
  0
SCALE
  5
51
102
{ACAD_REACTORS
330
47
102
}
330
47
100
AcDbScale
 70
     0
300
1:40
140
1.0
141
40.0
290
     0
  0
SCALE
  5
52
102
{ACAD_REACTORS
330
47
102
}
330
47
100
AcDbScale
 70
     0
300
1:50
140
1.0
141
50.0
290
     0
  0
SCALE
  5
53
102
{ACAD_REACTORS
330
47
102
}
330
47
100
AcDbScale
 70
     0
300
1:100
140
1.0
141
100.0
290
     0
  0
SCALE
  5
54
102
{ACAD_REACTORS
330
47
102
}
330
47
100
AcDbScale
 70
     0
300
2:1
140
2.0
141
1.0
290
     0
  0
SCALE
  5
55
102
{ACAD_REACTORS
330
47
102
}
330
47
100
AcDbScale
 70
     0
300
4:1
140
4.0
141
1.0
290
     0
  0
SCALE
  5
56
102
{ACAD_REACTORS
330
47
102
}
330
47
100
AcDbScale
 70
     0
300
8:1
140
8.0
141
1.0
290
     0
  0
SCALE
  5
57
102
{ACAD_REACTORS
330
47
102
}
330
47
100
AcDbScale
 70
     0
300
10:1
140
10.0
141
1.0
290
     0
  0
SCALE
  5
58
102
{ACAD_REACTORS
330
47
102
}
330
47
100
AcDbScale
 70
     0
300
100:1
140
100.0
141
1.0
290
     0
  0
SCALE
  5
59
102
{ACAD_REACTORS
330
47
102
}
330
47
100
AcDbScale
 70
     0
300
1/128" = 1'-0"
140
0.0078125
141
12.0
290
     0
  0
SCALE
  5
5A
102
{ACAD_REACTORS
330
47
102
}
330
47
100
AcDbScale
 70
     0
300
1/64" = 1'-0"
140
0.015625
141
12.0
290
     0
  0
SCALE
  5
5B
102
{ACAD_REACTORS
330
47
102
}
330
47
100
AcDbScale
 70
     0
300
1/32" = 1'-0"
140
0.03125
141
12.0
290
     0
  0
SCALE
  5
5C
102
{ACAD_REACTORS
330
47
102
}
330
47
100
AcDbScale
 70
     0
300
1/16" = 1'-0"
140
0.0625
141
12.0
290
     0
  0
SCALE
  5
5D
102
{ACAD_REACTORS
330
47
102
}
330
47
100
AcDbScale
 70
     0
300
3/32" = 1'-0"
140
0.09375
141
12.0
290
     0
  0
SCALE
  5
5E
102
{ACAD_REACTORS
330
47
102
}
330
47
100
AcDbScale
 70
     0
300
1/8" = 1'-0"
140
0.125
141
12.0
290
     0
  0
SCALE
  5
5F
102
{ACAD_REACTORS
330
47
102
}
330
47
100
AcDbScale
 70
     0
300
3/16" = 1'-0"
140
0.1875
141
12.0
290
     0
  0
SCALE
  5
60
102
{ACAD_REACTORS
330
47
102
}
330
47
100
AcDbScale
 70
     0
300
1/4" = 1'-0"
140
0.25
141
12.0
290
     0
  0
SCALE
  5
61
102
{ACAD_REACTORS
330
47
102
}
330
47
100
AcDbScale
 70
     0
300
3/8" = 1'-0"
140
0.375
141
12.0
290
     0
  0
SCALE
  5
62
102
{ACAD_REACTORS
330
47
102
}
330
47
100
AcDbScale
 70
     0
300
1/2" = 1'-0"
140
0.5
141
12.0
290
     0
  0
SCALE
  5
63
102
{ACAD_REACTORS
330
47
102
}
330
47
100
AcDbScale
 70
     0
300
3/4" = 1'-0"
140
0.75
141
12.0
290
     0
  0
SCALE
  5
64
102
{ACAD_REACTORS
330
47
102
}
330
47
100
AcDbScale
 70
     0
300
1" = 1'-0"
140
1.0
141
12.0
290
     0
  0
SCALE
  5
65
102
{ACAD_REACTORS
330
47
102
}
330
47
100
AcDbScale
 70
     0
300
1-1/2" = 1'-0"
140
1.5
141
12.0
290
     0
  0
SCALE
  5
66
102
{ACAD_REACTORS
330
47
102
}
330
47
100
AcDbScale
 70
     0
300
3" = 1'-0"
140
3.0
141
12.0
290
     0
  0
SCALE
  5
67
102
{ACAD_REACTORS
330
47
102
}
330
47
100
AcDbScale
 70
     0
300
6" = 1'-0"
140
6.0
141
12.0
290
     0
  0
SCALE
  5
68
102
{ACAD_REACTORS
330
47
102
}
330
47
100
AcDbScale
 70
     0
300
1'-0" = 1'-0"
140
12.0
141
12.0
290
     0
  0
ENDSEC
  0
EOF
